ISO-10303-21;
HEADER;
FILE_DESCRIPTION (( 'STEP AP214' ),
    '1' );
FILE_NAME ('9296BE1D-6338-49E7-B73C-4DD060D7A54F.STEP',
    '2023-08-02T11:26:53',
    ( '' ),
    ( '' ),
    'SwSTEP 2.0',
    'SolidWorks 2022',
    '' );
FILE_SCHEMA (( 'AUTOMOTIVE_DESIGN' ));
ENDSEC;

DATA;
#1 = CARTESIAN_POINT ( 'NONE',  ( 28.27499999999923119, 1.000000000000099920, -2.454460225792424843 ) ) ;
#2 = ORIENTED_EDGE ( 'NONE', *, *, #344, .F. ) ;
#3 = CIRCLE ( 'NONE', #166, 30.00000000000000000 ) ;
#4 = PRODUCT_DEFINITION_CONTEXT ( 'detailed design', #85, 'design' ) ;
#5 = VERTEX_POINT ( 'NONE', #60 ) ;
#6 = ORIENTED_EDGE ( 'NONE', *, *, #171, .T. ) ;
#7 = COLOUR_RGB ( '',0.2509803921568627416, 0.2509803921568627416, 0.2509803921568627416 ) ;
#8 = LINE ( 'NONE', #113, #269 ) ;
#9 = VECTOR ( 'NONE', #86, 1000.000000000000000 ) ;
#10 =( NAMED_UNIT ( * ) PLANE_ANGLE_UNIT ( ) SI_UNIT ( $, .RADIAN. ) );
#11 = CARTESIAN_POINT ( 'NONE',  ( 30.00000000000000000, 4.595661958622931920E-14, 0.0000000000000000000 ) ) ;
#12 = DIRECTION ( 'NONE',  ( 0.0000000000000000000, 0.0000000000000000000, 1.000000000000000000 ) ) ;
#13 =( NAMED_UNIT ( * ) SI_UNIT ( $, .STERADIAN. ) SOLID_ANGLE_UNIT ( ) );
#14 = DIRECTION ( 'NONE',  ( 0.0000000000000000000, 1.000000000000000000, 0.0000000000000000000 ) ) ;
#15 = CLOSED_SHELL ( 'NONE', ( #28, #320, #300, #157, #81, #295, #208, #184, #124, #249 ) ) ;
#16 = CIRCLE ( 'NONE', #122, 3.000000000000000888 ) ;
#17 = DIRECTION ( 'NONE',  ( -0.0000000000000000000, -1.000000000000000000, -0.0000000000000000000 ) ) ;
#18 = CARTESIAN_POINT ( 'NONE',  ( 0.0000000000000000000, 2.000000000000154543, -30.00000000000000000 ) ) ;
#19 = APPLICATION_CONTEXT ( 'automotive_design' ) ;
#20 = DIRECTION ( 'NONE',  ( 0.0000000000000000000, 0.0000000000000000000, -1.000000000000000000 ) ) ;
#21 = EDGE_CURVE ( 'NONE', #27, #110, #57, .T. ) ;
#22 = FILL_AREA_STYLE ('',( #129 ) ) ;
#23 = DIRECTION ( 'NONE',  ( 0.0000000000000000000, -1.000000000000000000, 0.0000000000000000000 ) ) ;
#24 = DIRECTION ( 'NONE',  ( 0.0000000000000000000, -1.000000000000000000, 0.0000000000000000000 ) ) ;
#25 = EDGE_CURVE ( 'NONE', #298, #172, #8, .T. ) ;
#26 = CARTESIAN_POINT ( 'NONE',  ( 0.0000000000000000000, 2.000000000000154543, 0.0000000000000000000 ) ) ;
#27 = VERTEX_POINT ( 'NONE', #92 ) ;
#28 = ADVANCED_FACE ( 'NONE', ( #174 ), #248, .F. ) ;
#29 = AXIS2_PLACEMENT_3D ( 'NONE', #161, #133, #223 ) ;
#30 = ORIENTED_EDGE ( 'NONE', *, *, #323, .F. ) ;
#31 = CIRCLE ( 'NONE', #148, 30.00000000000000000 ) ;
#32 = ORIENTED_EDGE ( 'NONE', *, *, #202, .T. ) ;
#33 = DIRECTION ( 'NONE',  ( 0.0000000000000000000, 1.000000000000000000, 0.0000000000000000000 ) ) ;
#34 = ORIENTED_EDGE ( 'NONE', *, *, #228, .F. ) ;
#35 = CARTESIAN_POINT ( 'NONE',  ( 28.27499999999983515, 2.000000000000264677, 2.454460225792848060 ) ) ;
#36 = ORIENTED_EDGE ( 'NONE', *, *, #232, .T. ) ;
#37 = CARTESIAN_POINT ( 'NONE',  ( 0.0000000000000000000, -6.418476861114186249E-14, -30.00000000000000000 ) ) ;
#38 = EDGE_LOOP ( 'NONE', ( #190, #352, #198, #305 ) ) ;
#39 = DIRECTION ( 'NONE',  ( 0.0000000000000000000, 0.0000000000000000000, -1.000000000000000000 ) ) ;
#40 = FACE_BOUND ( 'NONE', #188, .T. ) ;
#41 = ORIENTED_EDGE ( 'NONE', *, *, #353, .F. ) ;
#42 = FACE_OUTER_BOUND ( 'NONE', #80, .T. ) ;
#43 = CYLINDRICAL_SURFACE ( 'NONE', #82, 3.000000000000002665 ) ;
#44 = DIRECTION ( 'NONE',  ( 0.0000000000000000000, 0.0000000000000000000, -1.000000000000000000 ) ) ;
#45 = SHAPE_DEFINITION_REPRESENTATION ( #331, #48 ) ;
#46 =( NAMED_UNIT ( * ) SI_UNIT ( $, .STERADIAN. ) SOLID_ANGLE_UNIT ( ) );
#47 = AXIS2_PLACEMENT_3D ( 'NONE', #169, #33, #246 ) ;
#48 = ADVANCED_BREP_SHAPE_REPRESENTATION ( '9296BE1D-6338-49E7-B73C-4DD060D7A54F', ( #260, #338 ), #227 ) ;
#49 = CARTESIAN_POINT ( 'NONE',  ( 1.114428587224091663E-15, -6.938893903907228378E-15, -9.099999999999999645 ) ) ;
#50 =( NAMED_UNIT ( * ) PLANE_ANGLE_UNIT ( ) SI_UNIT ( $, .RADIAN. ) );
#51 = DIRECTION ( 'NONE',  ( 1.000000000000000000, -1.771641732852273543E-16, 0.0000000000000000000 ) ) ;
#52 = CIRCLE ( 'NONE', #316, 3.000000000000000888 ) ;
#53 = CIRCLE ( 'NONE', #264, 3.000000000000000888 ) ;
#54 =( LENGTH_UNIT ( ) NAMED_UNIT ( * ) SI_UNIT ( .MILLI., .METRE. ) );
#55 = ORIENTED_EDGE ( 'NONE', *, *, #262, .F. ) ;
#56 = EDGE_LOOP ( 'NONE', ( #299, #134, #36, #192, #218, #217 ) ) ;
#57 = CIRCLE ( 'NONE', #47, 9.099999999999999645 ) ;
#58 = ORIENTED_EDGE ( 'NONE', *, *, #267, .T. ) ;
#59 = AXIS2_PLACEMENT_3D ( 'NONE', #147, #89, #180 ) ;
#60 = CARTESIAN_POINT ( 'NONE',  ( 3.673940397442059178E-15, 2.000000000000154543, 30.00000000000000000 ) ) ;
#61 = SURFACE_STYLE_USAGE ( .BOTH. , #196 ) ;
#62 = ORIENTED_EDGE ( 'NONE', *, *, #267, .F. ) ;
#63 = ORIENTED_EDGE ( 'NONE', *, *, #318, .F. ) ;
#64 = CARTESIAN_POINT ( 'NONE',  ( 26.54999999999999716, 2.000000000000264677, -4.908920451585999878 ) ) ;
#65 = PRESENTATION_LAYER_ASSIGNMENT (  '', '', ( #348 ) ) ;
#66 = LINE ( 'NONE', #176, #274 ) ;
#67 = CARTESIAN_POINT ( 'NONE',  ( 29.50000000000082778, 2.000000000000215383, 5.454356057313371586 ) ) ;
#68 = EDGE_CURVE ( 'NONE', #119, #330, #75, .T. ) ;
#69 = DIRECTION ( 'NONE',  ( 0.0000000000000000000, -1.000000000000000000, 0.0000000000000000000 ) ) ;
#70 = LINE ( 'NONE', #18, #258 ) ;
#71 = VECTOR ( 'NONE', #268, 1000.000000000000000 ) ;
#72 = CARTESIAN_POINT ( 'NONE',  ( 29.50000000000164135, 1.000000000000099698, 5.454356057308962669 ) ) ;
#73 = CARTESIAN_POINT ( 'NONE',  ( 0.0000000000000000000, 2.000000000000154543, -30.00000000000000000 ) ) ;
#74 = SURFACE_SIDE_STYLE ('',( #290 ) ) ;
#75 = CIRCLE ( 'NONE', #303, 3.000000000000002665 ) ;
#76 = CARTESIAN_POINT ( 'NONE',  ( 26.54999999999999716, 4.595661958622931920E-14, 4.908920451585999878 ) ) ;
#77 = DIRECTION ( 'NONE',  ( 0.0000000000000000000, 0.0000000000000000000, 1.000000000000000000 ) ) ;
#78 = ORIENTED_EDGE ( 'NONE', *, *, #308, .T. ) ;
#79 = ORIENTED_EDGE ( 'NONE', *, *, #97, .T. ) ;
#80 = EDGE_LOOP ( 'NONE', ( #140, #58, #328, #221 ) ) ;
#81 = ADVANCED_FACE ( 'NONE', ( #259 ), #150, .T. ) ;
#82 = AXIS2_PLACEMENT_3D ( 'NONE', #11, #261, #116 ) ;
#83 = ORIENTED_EDGE ( 'NONE', *, *, #171, .F. ) ;
#84 = EDGE_LOOP ( 'NONE', ( #195, #310, #79, #63 ) ) ;
#85 = APPLICATION_CONTEXT ( 'automotive_design' ) ;
#86 = DIRECTION ( 'NONE',  ( 0.0000000000000000000, 1.000000000000000000, 0.0000000000000000000 ) ) ;
#87 = DIRECTION ( 'NONE',  ( 1.771641732852273050E-16, 1.000000000000000000, 0.0000000000000000000 ) ) ;
#88 = AXIS2_PLACEMENT_3D ( 'NONE', #152, #263, #20 ) ;
#89 = DIRECTION ( 'NONE',  ( 0.0000000000000000000, 1.000000000000000000, 0.0000000000000000000 ) ) ;
#90 = AXIS2_PLACEMENT_3D ( 'NONE', #118, #14, #123 ) ;
#91 = DIRECTION ( 'NONE',  ( 0.0000000000000000000, -1.000000000000000000, 0.0000000000000000000 ) ) ;
#92 = CARTESIAN_POINT ( 'NONE',  ( 0.0000000000000000000, 2.000000000000000000, 9.099999999999999645 ) ) ;
#93 = CARTESIAN_POINT ( 'NONE',  ( 1.428115065460631514E-31, -6.938893903907228378E-15, 9.099999999999999645 ) ) ;
#94 = UNCERTAINTY_MEASURE_WITH_UNIT (LENGTH_MEASURE( 1.000000000000000082E-05 ), #54, 'distance_accuracy_value', 'NONE');
#95 = CARTESIAN_POINT ( 'NONE',  ( 28.27499999999960778, 2.000000000000264677, -2.454460225792725048 ) ) ;
#96 = LINE ( 'NONE', #170, #280 ) ;
#97 = EDGE_CURVE ( 'NONE', #110, #27, #226, .T. ) ;
#98 = DIRECTION ( 'NONE',  ( 0.0000000000000000000, 0.0000000000000000000, 1.000000000000000000 ) ) ;
#99 = LINE ( 'NONE', #324, #71 ) ;
#100 = AXIS2_PLACEMENT_3D ( 'NONE', #76, #209, #77 ) ;
#101 = PRODUCT_DEFINITION_FORMATION_WITH_SPECIFIED_SOURCE ( 'ANY', '', #215, .NOT_KNOWN. ) ;
#102 = VECTOR ( 'NONE', #143, 1000.000000000000000 ) ;
#103 = DIRECTION ( 'NONE',  ( -0.0000000000000000000, 1.000000000000000000, -0.0000000000000000000 ) ) ;
#104 = CARTESIAN_POINT ( 'NONE',  ( 29.49999999999990763, 2.000000000000215383, -5.454356057318253015 ) ) ;
#105 = UNCERTAINTY_MEASURE_WITH_UNIT (LENGTH_MEASURE( 1.000000000000000082E-05 ), #349, 'distance_accuracy_value', 'NONE');
#106 = PRODUCT_RELATED_PRODUCT_CATEGORY ( 'part', '', ( #215 ) ) ;
#107 = VERTEX_POINT ( 'NONE', #37 ) ;
#108 = VERTEX_POINT ( 'NONE', #67 ) ;
#109 = VERTEX_POINT ( 'NONE', #93 ) ;
#110 = VERTEX_POINT ( 'NONE', #231 ) ;
#111 = DIRECTION ( 'NONE',  ( 0.0000000000000000000, 1.000000000000000000, 0.0000000000000000000 ) ) ;
#112 = AXIS2_PLACEMENT_3D ( 'NONE', #224, #87, #197 ) ;
#113 = CARTESIAN_POINT ( 'NONE',  ( 29.49999999999982236, 1.000000000000099920, -5.454356057318726414 ) ) ;
#114 = EDGE_LOOP ( 'NONE', ( #163, #2, #168, #304 ) ) ;
#115 = FILL_AREA_STYLE_COLOUR ( '', #149 ) ;
#116 = DIRECTION ( 'NONE',  ( 0.0000000000000000000, 0.0000000000000000000, 1.000000000000000000 ) ) ;
#117 = EDGE_CURVE ( 'NONE', #5, #276, #66, .T. ) ;
#118 = CARTESIAN_POINT ( 'NONE',  ( 26.54999999999999716, 4.595661958622931920E-14, -4.908920451585999878 ) ) ;
#119 = VERTEX_POINT ( 'NONE', #95 ) ;
#120 = CIRCLE ( 'NONE', #59, 3.000000000000000888 ) ;
#121 = PLANE ( 'NONE',  #167 ) ;
#122 = AXIS2_PLACEMENT_3D ( 'NONE', #286, #181, #12 ) ;
#123 = DIRECTION ( 'NONE',  ( 0.0000000000000000000, 0.0000000000000000000, 1.000000000000000000 ) ) ;
#124 = ADVANCED_FACE ( 'NONE', ( #204, #225 ), #254, .F. ) ;
#125 = FACE_OUTER_BOUND ( 'NONE', #277, .T. ) ;
#126 = PRODUCT_CONTEXT ( 'NONE', #19, 'mechanical' ) ;
#127 = CARTESIAN_POINT ( 'NONE',  ( 28.27499999999960778, 4.597017211338538800E-14, -2.454460225792725048 ) ) ;
#128 = CARTESIAN_POINT ( 'NONE',  ( 0.0000000000000000000, 2.000000000000154543, 0.0000000000000000000 ) ) ;
#129 = FILL_AREA_STYLE_COLOUR ( '', #7 ) ;
#130 = CARTESIAN_POINT ( 'NONE',  ( 3.673940397442059178E-15, -6.418476861114186249E-14, 30.00000000000000000 ) ) ;
#131 = CARTESIAN_POINT ( 'NONE',  ( 0.0000000000000000000, -6.418476861114186249E-14, 0.0000000000000000000 ) ) ;
#132 = DIRECTION ( 'NONE',  ( -0.0000000000000000000, -1.000000000000000000, -0.0000000000000000000 ) ) ;
#133 = DIRECTION ( 'NONE',  ( 0.0000000000000000000, -1.000000000000000000, 0.0000000000000000000 ) ) ;
#134 = ORIENTED_EDGE ( 'NONE', *, *, #262, .T. ) ;
#135 = AXIS2_PLACEMENT_3D ( 'NONE', #128, #24, #239 ) ;
#136 = EDGE_CURVE ( 'NONE', #108, #330, #120, .T. ) ;
#137 = AXIS2_PLACEMENT_3D ( 'NONE', #131, #212, #44 ) ;
#138 = UNCERTAINTY_MEASURE_WITH_UNIT (LENGTH_MEASURE( 1.000000000000000082E-05 ), #240, 'distance_accuracy_value', 'NONE');
#139 = ORIENTED_EDGE ( 'NONE', *, *, #238, .T. ) ;
#140 = ORIENTED_EDGE ( 'NONE', *, *, #68, .T. ) ;
#141 = VERTEX_POINT ( 'NONE', #230 ) ;
#142 = EDGE_LOOP ( 'NONE', ( #214, #281 ) ) ;
#143 = DIRECTION ( 'NONE',  ( 0.0000000000000000000, -1.000000000000000000, 0.0000000000000000000 ) ) ;
#144 = APPLICATION_PROTOCOL_DEFINITION ( 'draft international standard', 'automotive_design', 1998, #19 ) ;
#145 = DIRECTION ( 'NONE',  ( -0.0000000000000000000, -1.000000000000000000, -0.0000000000000000000 ) ) ;
#146 = EDGE_LOOP ( 'NONE', ( #187, #333, #34, #83 ) ) ;
#147 = CARTESIAN_POINT ( 'NONE',  ( 26.54999999999999716, 2.000000000000264677, 4.908920451585999878 ) ) ;
#148 = AXIS2_PLACEMENT_3D ( 'NONE', #266, #182, #351 ) ;
#149 = COLOUR_RGB ( '',0.2509803921568627416, 0.2509803921568627416, 0.2509803921568627416 ) ;
#150 = CYLINDRICAL_SURFACE ( 'NONE', #90, 3.000000000000000888 ) ;
#151 = DIRECTION ( 'NONE',  ( -1.000000000000000000, 1.771641732852273050E-16, 0.0000000000000000000 ) ) ;
#152 = CARTESIAN_POINT ( 'NONE',  ( 0.0000000000000000000, 2.000000000000154543, 0.0000000000000000000 ) ) ;
#153 = CARTESIAN_POINT ( 'NONE',  ( 0.0000000000000000000, -35.35533905932739174, 0.0000000000000000000 ) ) ;
#154 =( GEOMETRIC_REPRESENTATION_CONTEXT ( 3 ) GLOBAL_UNCERTAINTY_ASSIGNED_CONTEXT ( ( #105 ) ) GLOBAL_UNIT_ASSIGNED_CONTEXT ( ( #349, #50, #46 ) ) REPRESENTATION_CONTEXT ( 'NONE', 'WORKASPACE' ) );
#155 = EDGE_CURVE ( 'NONE', #298, #222, #321, .T. ) ;
#156 = DIRECTION ( 'NONE',  ( 0.0000000000000000000, 0.0000000000000000000, 1.000000000000000000 ) ) ;
#157 = ADVANCED_FACE ( 'NONE', ( #125, #40 ), #121, .T. ) ;
#158 = FACE_OUTER_BOUND ( 'NONE', #283, .T. ) ;
#159 = DIRECTION ( 'NONE',  ( 0.0000000000000000000, 0.0000000000000000000, -1.000000000000000000 ) ) ;
#160 = VECTOR ( 'NONE', #111, 1000.000000000000000 ) ;
#161 = CARTESIAN_POINT ( 'NONE',  ( 0.0000000000000000000, -6.418476861114186249E-14, 0.0000000000000000000 ) ) ;
#162 = DIRECTION ( 'NONE',  ( 1.000000000000000000, 0.0000000000000000000, 0.0000000000000000000 ) ) ;
#163 = ORIENTED_EDGE ( 'NONE', *, *, #350, .F. ) ;
#164 = ORIENTED_EDGE ( 'NONE', *, *, #189, .T. ) ;
#165 = EDGE_CURVE ( 'NONE', #222, #107, #70, .T. ) ;
#166 = AXIS2_PLACEMENT_3D ( 'NONE', #346, #103, #294 ) ;
#167 = AXIS2_PLACEMENT_3D ( 'NONE', #335, #229, #151 ) ;
#168 = ORIENTED_EDGE ( 'NONE', *, *, #178, .F. ) ;
#169 = CARTESIAN_POINT ( 'NONE',  ( 0.0000000000000000000, 2.000000000000000000, 0.0000000000000000000 ) ) ;
#170 = CARTESIAN_POINT ( 'NONE',  ( 0.0000000000000000000, -35.35533905932739174, 9.099999999999999645 ) ) ;
#171 = EDGE_CURVE ( 'NONE', #108, #329, #288, .T. ) ;
#172 = VERTEX_POINT ( 'NONE', #177 ) ;
#173 = DIRECTION ( 'NONE',  ( 0.0000000000000000000, 1.000000000000000000, 0.0000000000000000000 ) ) ;
#174 = FACE_OUTER_BOUND ( 'NONE', #84, .T. ) ;
#175 = DIRECTION ( 'NONE',  ( 0.0000000000000000000, 0.0000000000000000000, 1.000000000000000000 ) ) ;
#176 = CARTESIAN_POINT ( 'NONE',  ( 3.673940397442059178E-15, 2.000000000000154543, 30.00000000000000000 ) ) ;
#177 = CARTESIAN_POINT ( 'NONE',  ( 29.49999999999990763, -2.987579319737826859E-15, -5.454356057318253015 ) ) ;
#178 = EDGE_CURVE ( 'NONE', #172, #302, #16, .T. ) ;
#179 = CIRCLE ( 'NONE', #314, 9.099999999999999645 ) ;
#180 = DIRECTION ( 'NONE',  ( 0.0000000000000000000, 0.0000000000000000000, 1.000000000000000000 ) ) ;
#181 = DIRECTION ( 'NONE',  ( -0.0000000000000000000, -1.000000000000000000, -0.0000000000000000000 ) ) ;
#182 = DIRECTION ( 'NONE',  ( -0.0000000000000000000, 1.000000000000000000, -0.0000000000000000000 ) ) ;
#183 = AXIS2_PLACEMENT_3D ( 'NONE', #342, #312, #343 ) ;
#184 = ADVANCED_FACE ( 'NONE', ( #42 ), #43, .F. ) ;
#185 = PRESENTATION_STYLE_ASSIGNMENT (( #235 ) ) ;
#186 = DIRECTION ( 'NONE',  ( 2.312964634635742267E-15, 0.0000000000000000000, 1.000000000000000000 ) ) ;
#187 = ORIENTED_EDGE ( 'NONE', *, *, #232, .F. ) ;
#188 = EDGE_LOOP ( 'NONE', ( #32, #164 ) ) ;
#189 = EDGE_CURVE ( 'NONE', #216, #109, #256, .T. ) ;
#190 = ORIENTED_EDGE ( 'NONE', *, *, #165, .F. ) ;
#191 = AXIS2_PLACEMENT_3D ( 'NONE', #319, #23, #159 ) ;
#192 = ORIENTED_EDGE ( 'NONE', *, *, #136, .T. ) ;
#193 = LINE ( 'NONE', #1, #9 ) ;
#194 = PRODUCT_DEFINITION ( 'UNKNOWN', '', #101, #4 ) ;
#195 = ORIENTED_EDGE ( 'NONE', *, *, #189, .F. ) ;
#196 = SURFACE_SIDE_STYLE ('',( #284 ) ) ;
#197 = DIRECTION ( 'NONE',  ( 1.000000000000000000, -1.771641732852273543E-16, 0.0000000000000000000 ) ) ;
#198 = ORIENTED_EDGE ( 'NONE', *, *, #25, .T. ) ;
#199 = MECHANICAL_DESIGN_GEOMETRIC_PRESENTATION_REPRESENTATION (  '', ( #211 ), #154 ) ;
#200 = AXIS2_PLACEMENT_3D ( 'NONE', #207, #313, #251 ) ;
#201 = DIRECTION ( 'NONE',  ( 0.0000000000000000000, 0.0000000000000000000, 1.000000000000000000 ) ) ;
#202 = EDGE_CURVE ( 'NONE', #109, #216, #179, .T. ) ;
#203 = CARTESIAN_POINT ( 'NONE',  ( 30.00000000000000000, 2.000000000000264677, 0.0000000000000000000 ) ) ;
#204 = FACE_OUTER_BOUND ( 'NONE', #56, .T. ) ;
#205 = CIRCLE ( 'NONE', #219, 3.000000000000002665 ) ;
#206 = AXIS2_PLACEMENT_3D ( 'NONE', #26, #91, #39 ) ;
#207 = CARTESIAN_POINT ( 'NONE',  ( 0.0000000000000000000, 2.000000000000154543, 0.0000000000000000000 ) ) ;
#208 = ADVANCED_FACE ( 'NONE', ( #158 ), #292, .T. ) ;
#209 = DIRECTION ( 'NONE',  ( 0.0000000000000000000, 1.000000000000000000, 0.0000000000000000000 ) ) ;
#210 = DIRECTION ( 'NONE',  ( 1.771641732852273050E-16, 1.000000000000000000, 0.0000000000000000000 ) ) ;
#211 = STYLED_ITEM ( 'NONE', ( #185 ), #260 ) ;
#212 = DIRECTION ( 'NONE',  ( 0.0000000000000000000, -1.000000000000000000, 0.0000000000000000000 ) ) ;
#213 = FACE_OUTER_BOUND ( 'NONE', #273, .T. ) ;
#214 = ORIENTED_EDGE ( 'NONE', *, *, #21, .F. ) ;
#215 = PRODUCT ( '9296BE1D-6338-49E7-B73C-4DD060D7A54F', '9296BE1D-6338-49E7-B73C-4DD060D7A54F', '', ( #126 ) ) ;
#216 = VERTEX_POINT ( 'NONE', #49 ) ;
#217 = ORIENTED_EDGE ( 'NONE', *, *, #350, .T. ) ;
#218 = ORIENTED_EDGE ( 'NONE', *, *, #68, .F. ) ;
#219 = AXIS2_PLACEMENT_3D ( 'NONE', #233, #345, #98 ) ;
#220 = LINE ( 'NONE', #247, #160 ) ;
#221 = ORIENTED_EDGE ( 'NONE', *, *, #344, .T. ) ;
#222 = VERTEX_POINT ( 'NONE', #73 ) ;
#223 = DIRECTION ( 'NONE',  ( 0.0000000000000000000, 0.0000000000000000000, -1.000000000000000000 ) ) ;
#224 = CARTESIAN_POINT ( 'NONE',  ( 0.0000000000000000000, -6.938893903907228378E-15, 0.0000000000000000000 ) ) ;
#225 = FACE_BOUND ( 'NONE', #142, .T. ) ;
#226 = CIRCLE ( 'NONE', #183, 9.099999999999999645 ) ;
#227 =( GEOMETRIC_REPRESENTATION_CONTEXT ( 3 ) GLOBAL_UNCERTAINTY_ASSIGNED_CONTEXT ( ( #138 ) ) GLOBAL_UNIT_ASSIGNED_CONTEXT ( ( #240, #10, #296 ) ) REPRESENTATION_CONTEXT ( 'NONE', 'WORKASPACE' ) );
#228 = EDGE_CURVE ( 'NONE', #329, #276, #301, .T. ) ;
#229 = DIRECTION ( 'NONE',  ( -1.771641732852273050E-16, -1.000000000000000000, -0.0000000000000000000 ) ) ;
#230 = CARTESIAN_POINT ( 'NONE',  ( 28.27499999999983515, 4.597017211338538800E-14, 2.454460225792848060 ) ) ;
#231 = CARTESIAN_POINT ( 'NONE',  ( 1.114428587224091465E-15, 2.000000000000000000, -9.099999999999999645 ) ) ;
#232 = EDGE_CURVE ( 'NONE', #5, #108, #31, .T. ) ;
#233 = CARTESIAN_POINT ( 'NONE',  ( 30.00000000000000000, 4.597017211338538800E-14, 0.0000000000000000000 ) ) ;
#234 = CYLINDRICAL_SURFACE ( 'NONE', #88, 30.00000000000000000 ) ;
#235 = SURFACE_STYLE_USAGE ( .BOTH. , #74 ) ;
#236 = AXIS2_PLACEMENT_3D ( 'NONE', #340, #311, #282 ) ;
#237 = CYLINDRICAL_SURFACE ( 'NONE', #322, 9.099999999999999645 ) ;
#238 = EDGE_CURVE ( 'NONE', #276, #107, #243, .T. ) ;
#239 = DIRECTION ( 'NONE',  ( 0.0000000000000000000, 0.0000000000000000000, -1.000000000000000000 ) ) ;
#240 =( LENGTH_UNIT ( ) NAMED_UNIT ( * ) SI_UNIT ( .MILLI., .METRE. ) );
#241 = ORIENTED_EDGE ( 'NONE', *, *, #353, .T. ) ;
#242 = ORIENTED_EDGE ( 'NONE', *, *, #327, .T. ) ;
#243 = CIRCLE ( 'NONE', #191, 30.00000000000000000 ) ;
#244 = ORIENTED_EDGE ( 'NONE', *, *, #202, .F. ) ;
#245 = ORIENTED_EDGE ( 'NONE', *, *, #228, .T. ) ;
#246 = DIRECTION ( 'NONE',  ( 0.0000000000000000000, 0.0000000000000000000, 1.000000000000000000 ) ) ;
#247 = CARTESIAN_POINT ( 'NONE',  ( 1.114428587224091465E-15, -35.35533905932739174, -9.099999999999999645 ) ) ;
#248 = CYLINDRICAL_SURFACE ( 'NONE', #236, 9.099999999999999645 ) ;
#249 = ADVANCED_FACE ( 'NONE', ( #347 ), #237, .F. ) ;
#250 = FILL_AREA_STYLE ('',( #115 ) ) ;
#251 = DIRECTION ( 'NONE',  ( 0.0000000000000000000, 0.0000000000000000000, -1.000000000000000000 ) ) ;
#252 = EDGE_LOOP ( 'NONE', ( #30, #244, #326, #255 ) ) ;
#253 = FACE_OUTER_BOUND ( 'NONE', #146, .T. ) ;
#254 = PLANE ( 'NONE',  #337 ) ;
#255 = ORIENTED_EDGE ( 'NONE', *, *, #21, .T. ) ;
#256 = CIRCLE ( 'NONE', #112, 9.099999999999999645 ) ;
#257 = CIRCLE ( 'NONE', #29, 30.00000000000000000 ) ;
#258 = VECTOR ( 'NONE', #69, 1000.000000000000000 ) ;
#259 = FACE_OUTER_BOUND ( 'NONE', #114, .T. ) ;
#260 = MANIFOLD_SOLID_BREP ( 'Boss-Extrude1', #15 ) ;
#261 = DIRECTION ( 'NONE',  ( 0.0000000000000000000, 1.000000000000000000, 0.0000000000000000000 ) ) ;
#262 = EDGE_CURVE ( 'NONE', #222, #5, #3, .T. ) ;
#263 = DIRECTION ( 'NONE',  ( 0.0000000000000000000, -1.000000000000000000, 0.0000000000000000000 ) ) ;
#264 = AXIS2_PLACEMENT_3D ( 'NONE', #64, #173, #175 ) ;
#265 = FACE_OUTER_BOUND ( 'NONE', #38, .T. ) ;
#266 = CARTESIAN_POINT ( 'NONE',  ( 0.0000000000000000000, 2.000000000000154543, 0.0000000000000000000 ) ) ;
#267 = EDGE_CURVE ( 'NONE', #330, #141, #99, .T. ) ;
#268 = DIRECTION ( 'NONE',  ( -0.0000000000000000000, -1.000000000000000000, -0.0000000000000000000 ) ) ;
#269 = VECTOR ( 'NONE', #17, 1000.000000000000000 ) ;
#270 = CYLINDRICAL_SURFACE ( 'NONE', #135, 30.00000000000000000 ) ;
#271 = CARTESIAN_POINT ( 'NONE',  ( 29.50000000000082778, -2.987579319737808320E-15, 5.454356057313371586 ) ) ;
#272 = ORIENTED_EDGE ( 'NONE', *, *, #117, .F. ) ;
#273 = EDGE_LOOP ( 'NONE', ( #272, #55, #279, #341 ) ) ;
#274 = VECTOR ( 'NONE', #285, 1000.000000000000000 ) ;
#275 = ORIENTED_EDGE ( 'NONE', *, *, #178, .T. ) ;
#276 = VERTEX_POINT ( 'NONE', #130 ) ;
#277 = EDGE_LOOP ( 'NONE', ( #245, #139, #242, #275, #78, #241 ) ) ;
#278 = CYLINDRICAL_SURFACE ( 'NONE', #206, 30.00000000000000000 ) ;
#279 = ORIENTED_EDGE ( 'NONE', *, *, #165, .T. ) ;
#280 = VECTOR ( 'NONE', #307, 1000.000000000000000 ) ;
#281 = ORIENTED_EDGE ( 'NONE', *, *, #97, .F. ) ;
#282 = DIRECTION ( 'NONE',  ( 0.0000000000000000000, 0.0000000000000000000, 1.000000000000000000 ) ) ;
#283 = EDGE_LOOP ( 'NONE', ( #306, #6, #41, #62 ) ) ;
#284 = SURFACE_STYLE_FILL_AREA ( #250 ) ;
#285 = DIRECTION ( 'NONE',  ( 0.0000000000000000000, -1.000000000000000000, 0.0000000000000000000 ) ) ;
#286 = CARTESIAN_POINT ( 'NONE',  ( 26.54999999999999716, 4.597017211338538800E-14, -4.908920451585999878 ) ) ;
#287 = MECHANICAL_DESIGN_GEOMETRIC_PRESENTATION_REPRESENTATION (  '', ( #348 ), #291 ) ;
#288 = LINE ( 'NONE', #72, #102 ) ;
#289 = DIRECTION ( 'NONE',  ( -1.000000000000000000, 0.0000000000000000000, 0.0000000000000000000 ) ) ;
#290 = SURFACE_STYLE_FILL_AREA ( #22 ) ;
#291 =( GEOMETRIC_REPRESENTATION_CONTEXT ( 3 ) GLOBAL_UNCERTAINTY_ASSIGNED_CONTEXT ( ( #94 ) ) GLOBAL_UNIT_ASSIGNED_CONTEXT ( ( #54, #339, #13 ) ) REPRESENTATION_CONTEXT ( 'NONE', 'WORKASPACE' ) );
#292 = CYLINDRICAL_SURFACE ( 'NONE', #100, 3.000000000000000888 ) ;
#293 = DIRECTION ( 'NONE',  ( 0.0000000000000000000, 1.000000000000000000, 0.0000000000000000000 ) ) ;
#294 = DIRECTION ( 'NONE',  ( 0.0000000000000000000, 0.0000000000000000000, -1.000000000000000000 ) ) ;
#295 = ADVANCED_FACE ( 'NONE', ( #265 ), #270, .T. ) ;
#296 =( NAMED_UNIT ( * ) SI_UNIT ( $, .STERADIAN. ) SOLID_ANGLE_UNIT ( ) );
#297 = DIRECTION ( 'NONE',  ( 0.0000000000000000000, 0.0000000000000000000, 1.000000000000000000 ) ) ;
#298 = VERTEX_POINT ( 'NONE', #104 ) ;
#299 = ORIENTED_EDGE ( 'NONE', *, *, #155, .T. ) ;
#300 = ADVANCED_FACE ( 'NONE', ( #213 ), #234, .T. ) ;
#301 = CIRCLE ( 'NONE', #137, 30.00000000000000000 ) ;
#302 = VERTEX_POINT ( 'NONE', #127 ) ;
#303 = AXIS2_PLACEMENT_3D ( 'NONE', #203, #317, #201 ) ;
#304 = ORIENTED_EDGE ( 'NONE', *, *, #25, .F. ) ;
#305 = ORIENTED_EDGE ( 'NONE', *, *, #327, .F. ) ;
#306 = ORIENTED_EDGE ( 'NONE', *, *, #136, .F. ) ;
#307 = DIRECTION ( 'NONE',  ( 0.0000000000000000000, 1.000000000000000000, 0.0000000000000000000 ) ) ;
#308 = EDGE_CURVE ( 'NONE', #302, #141, #205, .T. ) ;
#309 = CARTESIAN_POINT ( 'NONE',  ( 0.0000000000000000000, -6.938893903907228378E-15, 0.0000000000000000000 ) ) ;
#310 = ORIENTED_EDGE ( 'NONE', *, *, #323, .T. ) ;
#311 = DIRECTION ( 'NONE',  ( 0.0000000000000000000, 1.000000000000000000, 0.0000000000000000000 ) ) ;
#312 = DIRECTION ( 'NONE',  ( 0.0000000000000000000, 1.000000000000000000, 0.0000000000000000000 ) ) ;
#313 = DIRECTION ( 'NONE',  ( -0.0000000000000000000, 1.000000000000000000, -0.0000000000000000000 ) ) ;
#314 = AXIS2_PLACEMENT_3D ( 'NONE', #309, #210, #51 ) ;
#315 = APPLICATION_PROTOCOL_DEFINITION ( 'draft international standard', 'automotive_design', 1998, #85 ) ;
#316 = AXIS2_PLACEMENT_3D ( 'NONE', #332, #132, #186 ) ;
#317 = DIRECTION ( 'NONE',  ( 0.0000000000000000000, 1.000000000000000000, 0.0000000000000000000 ) ) ;
#318 = EDGE_CURVE ( 'NONE', #109, #27, #96, .T. ) ;
#319 = CARTESIAN_POINT ( 'NONE',  ( 0.0000000000000000000, -6.418476861114186249E-14, 0.0000000000000000000 ) ) ;
#320 = ADVANCED_FACE ( 'NONE', ( #253 ), #278, .T. ) ;
#321 = CIRCLE ( 'NONE', #200, 30.00000000000000000 ) ;
#322 = AXIS2_PLACEMENT_3D ( 'NONE', #153, #293, #156 ) ;
#323 = EDGE_CURVE ( 'NONE', #216, #110, #220, .T. ) ;
#324 = CARTESIAN_POINT ( 'NONE',  ( 28.27499999999965041, 1.000000000000099920, 2.454460225792719719 ) ) ;
#325 = CARTESIAN_POINT ( 'NONE',  ( 0.0000000000000000000, 0.0000000000000000000, 0.0000000000000000000 ) ) ;
#326 = ORIENTED_EDGE ( 'NONE', *, *, #318, .T. ) ;
#327 = EDGE_CURVE ( 'NONE', #107, #172, #257, .T. ) ;
#328 = ORIENTED_EDGE ( 'NONE', *, *, #308, .F. ) ;
#329 = VERTEX_POINT ( 'NONE', #271 ) ;
#330 = VERTEX_POINT ( 'NONE', #35 ) ;
#331 = PRODUCT_DEFINITION_SHAPE ( 'NONE', 'NONE',  #194 ) ;
#332 = CARTESIAN_POINT ( 'NONE',  ( 26.54999999999999716, 4.597017211338538800E-14, 4.908920451585999878 ) ) ;
#333 = ORIENTED_EDGE ( 'NONE', *, *, #117, .T. ) ;
#334 = PRESENTATION_STYLE_ASSIGNMENT (( #61 ) ) ;
#335 = CARTESIAN_POINT ( 'NONE',  ( 30.74231313350999883, -1.097615531737000293E-14, 31.20062012073999824 ) ) ;
#336 = CARTESIAN_POINT ( 'NONE',  ( 30.74231313350999883, 2.000000000000000000, 31.20062012073999824 ) ) ;
#337 = AXIS2_PLACEMENT_3D ( 'NONE', #336, #145, #289 ) ;
#338 = AXIS2_PLACEMENT_3D ( 'NONE', #325, #297, #162 ) ;
#339 =( NAMED_UNIT ( * ) PLANE_ANGLE_UNIT ( ) SI_UNIT ( $, .RADIAN. ) );
#340 = CARTESIAN_POINT ( 'NONE',  ( 0.0000000000000000000, -35.35533905932739174, 0.0000000000000000000 ) ) ;
#341 = ORIENTED_EDGE ( 'NONE', *, *, #238, .F. ) ;
#342 = CARTESIAN_POINT ( 'NONE',  ( 0.0000000000000000000, 2.000000000000000000, 0.0000000000000000000 ) ) ;
#343 = DIRECTION ( 'NONE',  ( 0.0000000000000000000, 0.0000000000000000000, 1.000000000000000000 ) ) ;
#344 = EDGE_CURVE ( 'NONE', #302, #119, #193, .T. ) ;
#345 = DIRECTION ( 'NONE',  ( 0.0000000000000000000, 1.000000000000000000, 0.0000000000000000000 ) ) ;
#346 = CARTESIAN_POINT ( 'NONE',  ( 0.0000000000000000000, 2.000000000000154543, 0.0000000000000000000 ) ) ;
#347 = FACE_OUTER_BOUND ( 'NONE', #252, .T. ) ;
#348 = STYLED_ITEM ( 'NONE', ( #334 ), #48 ) ;
#349 =( LENGTH_UNIT ( ) NAMED_UNIT ( * ) SI_UNIT ( .MILLI., .METRE. ) );
#350 = EDGE_CURVE ( 'NONE', #119, #298, #53, .T. ) ;
#351 = DIRECTION ( 'NONE',  ( 8.881784197001252323E-16, 0.0000000000000000000, -1.000000000000000000 ) ) ;
#352 = ORIENTED_EDGE ( 'NONE', *, *, #155, .F. ) ;
#353 = EDGE_CURVE ( 'NONE', #141, #329, #52, .T. ) ;
#354 = PRESENTATION_LAYER_ASSIGNMENT (  '', '', ( #211 ) ) ;
ENDSEC;
END-ISO-10303-21;
