ISO-10303-21;
HEADER;
FILE_DESCRIPTION (( 'STEP AP214' ),
    '1' );
FILE_NAME ('61511534-40F3-45E7-8468-3F67EFBCA9F9.STEP',
    '2023-08-02T08:15:18',
    ( '' ),
    ( '' ),
    'SwSTEP 2.0',
    'SolidWorks 2022',
    '' );
FILE_SCHEMA (( 'AUTOMOTIVE_DESIGN' ));
ENDSEC;

DATA;
#1 = CARTESIAN_POINT ( 'NONE',  ( -20.24999999999999645, -10.00000000000000000, -6000.000000000000000 ) ) ;
#2 = AXIS2_PLACEMENT_3D ( 'NONE', #321, #80, #236 ) ;
#3 = PLANE ( 'NONE',  #226 ) ;
#4 = SURFACE_STYLE_USAGE ( .BOTH. , #26 ) ;
#5 = ORIENTED_EDGE ( 'NONE', *, *, #68, .F. ) ;
#6 = ORIENTED_EDGE ( 'NONE', *, *, #216, .F. ) ;
#7 = VERTEX_POINT ( 'NONE', #287 ) ;
#8 = EDGE_CURVE ( 'NONE', #281, #211, #110, .T. ) ;
#9 = ORIENTED_EDGE ( 'NONE', *, *, #144, .T. ) ;
#10 = ORIENTED_EDGE ( 'NONE', *, *, #49, .T. ) ;
#11 = CARTESIAN_POINT ( 'NONE',  ( 20.25000000000000355, -9.999999999999994671, 0.0000000000000000000 ) ) ;
#12 = EDGE_CURVE ( 'NONE', #7, #81, #298, .T. ) ;
#13 = DIRECTION ( 'NONE',  ( -0.0000000000000000000, 1.000000000000000000, -0.0000000000000000000 ) ) ;
#14 = DIRECTION ( 'NONE',  ( 0.0000000000000000000, 0.0000000000000000000, 1.000000000000000000 ) ) ;
#15 = DIRECTION ( 'NONE',  ( 1.000000000000000000, -0.0000000000000000000, -0.0000000000000000000 ) ) ;
#16 = DIRECTION ( 'NONE',  ( 1.000000000000000000, 1.421904488505579408E-16, -0.0000000000000000000 ) ) ;
#17 = VECTOR ( 'NONE', #301, 1000.000000000000000 ) ;
#18 = FACE_OUTER_BOUND ( 'NONE', #212, .T. ) ;
#19 = ORIENTED_EDGE ( 'NONE', *, *, #44, .F. ) ;
#20 = CARTESIAN_POINT ( 'NONE',  ( 15.25000000000000533, -2.999999999999994671, 0.0000000000000000000 ) ) ;
#21 = ADVANCED_FACE ( 'NONE', ( #195 ), #328, .T. ) ;
#22 = PLANE ( 'NONE',  #293 ) ;
#23 = VECTOR ( 'NONE', #127, 1000.000000000000000 ) ;
#24 = DIRECTION ( 'NONE',  ( -1.000000000000000000, 0.0000000000000000000, 0.0000000000000000000 ) ) ;
#25 = FACE_OUTER_BOUND ( 'NONE', #215, .T. ) ;
#26 = SURFACE_SIDE_STYLE ('',( #57 ) ) ;
#27 = ORIENTED_EDGE ( 'NONE', *, *, #178, .T. ) ;
#28 = ORIENTED_EDGE ( 'NONE', *, *, #122, .F. ) ;
#29 = VECTOR ( 'NONE', #332, 1000.000000000000000 ) ;
#30 = DIRECTION ( 'NONE',  ( 0.0000000000000000000, 0.0000000000000000000, 1.000000000000000000 ) ) ;
#31 = ORIENTED_EDGE ( 'NONE', *, *, #157, .T. ) ;
#32 = EDGE_CURVE ( 'NONE', #35, #254, #147, .T. ) ;
#33 =( NAMED_UNIT ( * ) SI_UNIT ( $, .STERADIAN. ) SOLID_ANGLE_UNIT ( ) );
#34 = ORIENTED_EDGE ( 'NONE', *, *, #122, .T. ) ;
#35 = VERTEX_POINT ( 'NONE', #126 ) ;
#36 = PRODUCT_RELATED_PRODUCT_CATEGORY ( 'part', '', ( #43 ) ) ;
#37 = PLANE ( 'NONE',  #47 ) ;
#38 = CARTESIAN_POINT ( 'NONE',  ( 20.25000000000000355, 4.959819536546780600E-15, 0.0000000000000000000 ) ) ;
#39 = LINE ( 'NONE', #121, #23 ) ;
#40 = MECHANICAL_DESIGN_GEOMETRIC_PRESENTATION_REPRESENTATION (  '', ( #199 ), #41 ) ;
#41 =( GEOMETRIC_REPRESENTATION_CONTEXT ( 3 ) GLOBAL_UNCERTAINTY_ASSIGNED_CONTEXT ( ( #50 ) ) GLOBAL_UNIT_ASSIGNED_CONTEXT ( ( #115, #210, #262 ) ) REPRESENTATION_CONTEXT ( 'NONE', 'WORKASPACE' ) );
#42 = LINE ( 'NONE', #218, #297 ) ;
#43 = PRODUCT ( '61511534-40F3-45E7-8468-3F67EFBCA9F9', '61511534-40F3-45E7-8468-3F67EFBCA9F9', '', ( #269 ) ) ;
#44 = EDGE_CURVE ( 'NONE', #254, #187, #324, .T. ) ;
#45 = LINE ( 'NONE', #274, #267 ) ;
#46 = SURFACE_STYLE_USAGE ( .BOTH. , #277 ) ;
#47 = AXIS2_PLACEMENT_3D ( 'NONE', #146, #271, #239 ) ;
#48 = DIRECTION ( 'NONE',  ( -3.469446951953613203E-16, -1.000000000000000000, 0.0000000000000000000 ) ) ;
#49 = EDGE_CURVE ( 'NONE', #265, #62, #45, .T. ) ;
#50 = UNCERTAINTY_MEASURE_WITH_UNIT (LENGTH_MEASURE( 1.000000000000000082E-05 ), #115, 'distance_accuracy_value', 'NONE');
#51 = DIRECTION ( 'NONE',  ( 1.000000000000000000, 0.0000000000000000000, -0.0000000000000000000 ) ) ;
#52 = CARTESIAN_POINT ( 'NONE',  ( -15.24999999999999822, -2.999999999999999112, -6000.000000000000000 ) ) ;
#53 = DIRECTION ( 'NONE',  ( -0.0000000000000000000, 0.0000000000000000000, -1.000000000000000000 ) ) ;
#54 = CARTESIAN_POINT ( 'NONE',  ( 0.0000000000000000000, 0.0000000000000000000, -6000.000000000000000 ) ) ;
#55 = ORIENTED_EDGE ( 'NONE', *, *, #243, .F. ) ;
#56 = ORIENTED_EDGE ( 'NONE', *, *, #201, .T. ) ;
#57 = SURFACE_STYLE_FILL_AREA ( #291 ) ;
#58 = EDGE_LOOP ( 'NONE', ( #318, #6, #56, #31 ) ) ;
#59 = ADVANCED_FACE ( 'NONE', ( #219 ), #97, .T. ) ;
#60 = PRODUCT_DEFINITION_CONTEXT ( 'detailed design', #85, 'design' ) ;
#61 = ORIENTED_EDGE ( 'NONE', *, *, #71, .T. ) ;
#62 = VERTEX_POINT ( 'NONE', #245 ) ;
#63 = CARTESIAN_POINT ( 'NONE',  ( -20.24999999999999645, -10.00000000000000000, 0.0000000000000000000 ) ) ;
#64 = VECTOR ( 'NONE', #16, 1000.000000000000000 ) ;
#65 = CARTESIAN_POINT ( 'NONE',  ( -15.24999999999999822, -2.999999999999999112, 0.0000000000000000000 ) ) ;
#66 = DIRECTION ( 'NONE',  ( 0.0000000000000000000, -1.000000000000000000, 0.0000000000000000000 ) ) ;
#67 = DIRECTION ( 'NONE',  ( 0.0000000000000000000, 0.0000000000000000000, 1.000000000000000000 ) ) ;
#68 = EDGE_CURVE ( 'NONE', #81, #281, #198, .T. ) ;
#69 = LINE ( 'NONE', #38, #87 ) ;
#70 = DIRECTION ( 'NONE',  ( 0.0000000000000000000, 0.0000000000000000000, 1.000000000000000000 ) ) ;
#71 = EDGE_CURVE ( 'NONE', #139, #265, #69, .T. ) ;
#72 = FACE_OUTER_BOUND ( 'NONE', #316, .T. ) ;
#73 = ORIENTED_EDGE ( 'NONE', *, *, #111, .T. ) ;
#74 = FACE_OUTER_BOUND ( 'NONE', #166, .T. ) ;
#75 = PLANE ( 'NONE',  #109 ) ;
#76 = CARTESIAN_POINT ( 'NONE',  ( -20.24999999999999645, 0.0000000000000000000, -6000.000000000000000 ) ) ;
#77 = EDGE_CURVE ( 'NONE', #117, #7, #39, .T. ) ;
#78 = VECTOR ( 'NONE', #130, 1000.000000000000000 ) ;
#79 = CLOSED_SHELL ( 'NONE', ( #230, #220, #288, #59, #21, #137, #313, #276, #311, #323 ) ) ;
#80 = DIRECTION ( 'NONE',  ( 1.000000000000000000, 2.478176394252580648E-16, -0.0000000000000000000 ) ) ;
#81 = VERTEX_POINT ( 'NONE', #325 ) ;
#82 = DIRECTION ( 'NONE',  ( 1.000000000000000000, 0.0000000000000000000, -0.0000000000000000000 ) ) ;
#83 = DIRECTION ( 'NONE',  ( -2.478176394252581634E-16, -1.000000000000000000, -0.0000000000000000000 ) ) ;
#84 = ORIENTED_EDGE ( 'NONE', *, *, #283, .F. ) ;
#85 = APPLICATION_CONTEXT ( 'automotive_design' ) ;
#86 =( LENGTH_UNIT ( ) NAMED_UNIT ( * ) SI_UNIT ( .MILLI., .METRE. ) );
#87 = VECTOR ( 'NONE', #13, 1000.000000000000000 ) ;
#88 = ORIENTED_EDGE ( 'NONE', *, *, #71, .F. ) ;
#89 = AXIS2_PLACEMENT_3D ( 'NONE', #246, #206, #158 ) ;
#90 = FILL_AREA_STYLE_COLOUR ( '', #149 ) ;
#91 = ORIENTED_EDGE ( 'NONE', *, *, #300, .T. ) ;
#92 = CARTESIAN_POINT ( 'NONE',  ( 15.25000000000000533, -2.999999999999994671, -6000.000000000000000 ) ) ;
#93 = DIRECTION ( 'NONE',  ( 0.0000000000000000000, 0.0000000000000000000, 1.000000000000000000 ) ) ;
#94 = VECTOR ( 'NONE', #221, 1000.000000000000000 ) ;
#95 = CARTESIAN_POINT ( 'NONE',  ( -20.24999999999999645, 0.0000000000000000000, -6000.000000000000000 ) ) ;
#96 = EDGE_CURVE ( 'NONE', #263, #117, #302, .T. ) ;
#97 = PLANE ( 'NONE',  #208 ) ;
#98 = DIRECTION ( 'NONE',  ( 0.0000000000000000000, -0.0000000000000000000, -1.000000000000000000 ) ) ;
#99 =( GEOMETRIC_REPRESENTATION_CONTEXT ( 3 ) GLOBAL_UNCERTAINTY_ASSIGNED_CONTEXT ( ( #113 ) ) GLOBAL_UNIT_ASSIGNED_CONTEXT ( ( #186, #289, #264 ) ) REPRESENTATION_CONTEXT ( 'NONE', 'WORKASPACE' ) );
#100 = LINE ( 'NONE', #222, #128 ) ;
#101 = DIRECTION ( 'NONE',  ( 0.0000000000000000000, 0.0000000000000000000, 1.000000000000000000 ) ) ;
#102 = ORIENTED_EDGE ( 'NONE', *, *, #111, .F. ) ;
#103 = CARTESIAN_POINT ( 'NONE',  ( -15.24999999999999822, -2.999999999999999112, -6000.000000000000000 ) ) ;
#104 = AXIS2_PLACEMENT_3D ( 'NONE', #231, #255, #82 ) ;
#105 = STYLED_ITEM ( 'NONE', ( #314 ), #118 ) ;
#106 = DIRECTION ( 'NONE',  ( 0.0000000000000000000, 0.0000000000000000000, 1.000000000000000000 ) ) ;
#107 = PLANE ( 'NONE',  #89 ) ;
#108 = ORIENTED_EDGE ( 'NONE', *, *, #151, .T. ) ;
#109 = AXIS2_PLACEMENT_3D ( 'NONE', #54, #30, #286 ) ;
#110 = LINE ( 'NONE', #315, #319 ) ;
#111 = EDGE_CURVE ( 'NONE', #62, #117, #172, .T. ) ;
#112 = ORIENTED_EDGE ( 'NONE', *, *, #125, .F. ) ;
#113 = UNCERTAINTY_MEASURE_WITH_UNIT (LENGTH_MEASURE( 1.000000000000000082E-05 ), #186, 'distance_accuracy_value', 'NONE');
#114 = ORIENTED_EDGE ( 'NONE', *, *, #125, .T. ) ;
#115 =( LENGTH_UNIT ( ) NAMED_UNIT ( * ) SI_UNIT ( .MILLI., .METRE. ) );
#116 = ORIENTED_EDGE ( 'NONE', *, *, #77, .F. ) ;
#117 = VERTEX_POINT ( 'NONE', #63 ) ;
#118 = ADVANCED_BREP_SHAPE_REPRESENTATION ( '61511534-40F3-45E7-8468-3F67EFBCA9F9', ( #307, #173 ), #258 ) ;
#119 = SHAPE_DEFINITION_REPRESENTATION ( #299, #118 ) ;
#120 = LINE ( 'NONE', #217, #233 ) ;
#121 = CARTESIAN_POINT ( 'NONE',  ( -20.24999999999999645, -10.00000000000000000, 0.0000000000000000000 ) ) ;
#122 = EDGE_CURVE ( 'NONE', #290, #256, #42, .T. ) ;
#123 = CARTESIAN_POINT ( 'NONE',  ( 0.0000000000000000000, 0.0000000000000000000, 0.0000000000000000000 ) ) ;
#124 = LINE ( 'NONE', #103, #177 ) ;
#125 = EDGE_CURVE ( 'NONE', #187, #232, #327, .T. ) ;
#126 = CARTESIAN_POINT ( 'NONE',  ( -15.24999999999999822, -2.999999999999999112, -6000.000000000000000 ) ) ;
#127 = DIRECTION ( 'NONE',  ( 1.000000000000000000, -3.469446951953613696E-16, 0.0000000000000000000 ) ) ;
#128 = VECTOR ( 'NONE', #106, 1000.000000000000000 ) ;
#129 = PRESENTATION_STYLE_ASSIGNMENT (( #46 ) ) ;
#130 = DIRECTION ( 'NONE',  ( -0.0000000000000000000, 1.000000000000000000, -0.0000000000000000000 ) ) ;
#131 = CARTESIAN_POINT ( 'NONE',  ( -20.24999999999999645, 0.0000000000000000000, -6000.000000000000000 ) ) ;
#132 = PRESENTATION_LAYER_ASSIGNMENT (  '', '', ( #105 ) ) ;
#133 = EDGE_CURVE ( 'NONE', #256, #62, #244, .T. ) ;
#134 = FILL_AREA_STYLE_COLOUR ( '', #143 ) ;
#135 = FACE_OUTER_BOUND ( 'NONE', #58, .T. ) ;
#136 = VERTEX_POINT ( 'NONE', #268 ) ;
#137 = ADVANCED_FACE ( 'NONE', ( #148 ), #37, .T. ) ;
#138 = VECTOR ( 'NONE', #14, 1000.000000000000000 ) ;
#139 = VERTEX_POINT ( 'NONE', #11 ) ;
#140 = ORIENTED_EDGE ( 'NONE', *, *, #178, .F. ) ;
#141 = PLANE ( 'NONE',  #104 ) ;
#142 = ORIENTED_EDGE ( 'NONE', *, *, #44, .T. ) ;
#143 = COLOUR_RGB ( '',0.1254901960784313708, 0.1254901960784313708, 0.1254901960784313708 ) ;
#144 = EDGE_CURVE ( 'NONE', #187, #211, #120, .T. ) ;
#145 = ORIENTED_EDGE ( 'NONE', *, *, #68, .T. ) ;
#146 = CARTESIAN_POINT ( 'NONE',  ( 15.25000000000000533, -2.999999999999994671, -6000.000000000000000 ) ) ;
#147 = LINE ( 'NONE', #92, #17 ) ;
#148 = FACE_OUTER_BOUND ( 'NONE', #214, .T. ) ;
#149 = COLOUR_RGB ( '',0.1254901960784313708, 0.1254901960784313708, 0.1254901960784313708 ) ;
#150 = CARTESIAN_POINT ( 'NONE',  ( 20.25000000000000355, -9.999999999999994671, -6000.000000000000000 ) ) ;
#151 = EDGE_CURVE ( 'NONE', #254, #281, #196, .T. ) ;
#152 = DIRECTION ( 'NONE',  ( -1.000000000000000000, -1.224646799147353207E-16, -0.0000000000000000000 ) ) ;
#153 = DIRECTION ( 'NONE',  ( 1.000000000000000000, -3.469446951953613696E-16, 0.0000000000000000000 ) ) ;
#154 = ORIENTED_EDGE ( 'NONE', *, *, #96, .T. ) ;
#155 = CARTESIAN_POINT ( 'NONE',  ( 20.25000000000000355, 4.959819536546780600E-15, -6000.000000000000000 ) ) ;
#156 = CARTESIAN_POINT ( 'NONE',  ( 20.25000000000000355, -9.999999999999994671, 0.0000000000000000000 ) ) ;
#157 = EDGE_CURVE ( 'NONE', #35, #81, #124, .T. ) ;
#158 = DIRECTION ( 'NONE',  ( -1.000000000000000000, -1.224646799147352961E-16, 0.0000000000000000000 ) ) ;
#159 = CARTESIAN_POINT ( 'NONE',  ( 15.25000000000000533, -2.999999999999994671, -6000.000000000000000 ) ) ;
#160 = ORIENTED_EDGE ( 'NONE', *, *, #96, .F. ) ;
#161 =( NAMED_UNIT ( * ) PLANE_ANGLE_UNIT ( ) SI_UNIT ( $, .RADIAN. ) );
#162 = ORIENTED_EDGE ( 'NONE', *, *, #32, .F. ) ;
#163 = ORIENTED_EDGE ( 'NONE', *, *, #8, .T. ) ;
#164 = ORIENTED_EDGE ( 'NONE', *, *, #201, .F. ) ;
#165 = ORIENTED_EDGE ( 'NONE', *, *, #133, .T. ) ;
#166 = EDGE_LOOP ( 'NONE', ( #88, #55, #309, #91 ) ) ;
#167 = AXIS2_PLACEMENT_3D ( 'NONE', #1, #48, #312 ) ;
#168 = AXIS2_PLACEMENT_3D ( 'NONE', #169, #170, #275 ) ;
#169 = CARTESIAN_POINT ( 'NONE',  ( 15.25000000000000355, -9.999999999999994671, -6000.000000000000000 ) ) ;
#170 = DIRECTION ( 'NONE',  ( -1.000000000000000000, 2.478176394252581141E-16, 0.0000000000000000000 ) ) ;
#171 = DIRECTION ( 'NONE',  ( -1.000000000000000000, -1.224646799147353207E-16, -0.0000000000000000000 ) ) ;
#172 = LINE ( 'NONE', #296, #247 ) ;
#173 = AXIS2_PLACEMENT_3D ( 'NONE', #123, #241, #197 ) ;
#174 = CARTESIAN_POINT ( 'NONE',  ( 15.25000000000000355, -9.999999999999994671, -6000.000000000000000 ) ) ;
#175 = SURFACE_STYLE_FILL_AREA ( #180 ) ;
#176 = PLANE ( 'NONE',  #167 ) ;
#177 = VECTOR ( 'NONE', #223, 1000.000000000000000 ) ;
#178 = EDGE_CURVE ( 'NONE', #211, #139, #249, .T. ) ;
#179 = EDGE_LOOP ( 'NONE', ( #192, #224, #142, #9 ) ) ;
#180 = FILL_AREA_STYLE ('',( #134 ) ) ;
#181 = EDGE_CURVE ( 'NONE', #263, #136, #204, .T. ) ;
#182 = LINE ( 'NONE', #52, #189 ) ;
#183 = APPLICATION_PROTOCOL_DEFINITION ( 'draft international standard', 'automotive_design', 1998, #278 ) ;
#184 = ORIENTED_EDGE ( 'NONE', *, *, #216, .T. ) ;
#185 = UNCERTAINTY_MEASURE_WITH_UNIT (LENGTH_MEASURE( 1.000000000000000082E-05 ), #86, 'distance_accuracy_value', 'NONE');
#186 =( LENGTH_UNIT ( ) NAMED_UNIT ( * ) SI_UNIT ( .MILLI., .METRE. ) );
#187 = VERTEX_POINT ( 'NONE', #202 ) ;
#188 = ORIENTED_EDGE ( 'NONE', *, *, #133, .F. ) ;
#189 = VECTOR ( 'NONE', #310, 1000.000000000000000 ) ;
#190 = ORIENTED_EDGE ( 'NONE', *, *, #157, .F. ) ;
#191 = FACE_OUTER_BOUND ( 'NONE', #207, .T. ) ;
#192 = ORIENTED_EDGE ( 'NONE', *, *, #8, .F. ) ;
#193 = CARTESIAN_POINT ( 'NONE',  ( -20.24999999999999645, -10.00000000000000000, -6000.000000000000000 ) ) ;
#194 = VECTOR ( 'NONE', #15, 1000.000000000000000 ) ;
#195 = FACE_OUTER_BOUND ( 'NONE', #179, .T. ) ;
#196 = LINE ( 'NONE', #242, #138 ) ;
#197 = DIRECTION ( 'NONE',  ( 1.000000000000000000, 0.0000000000000000000, 0.0000000000000000000 ) ) ;
#198 = LINE ( 'NONE', #270, #64 ) ;
#199 = STYLED_ITEM ( 'NONE', ( #129 ), #307 ) ;
#200 = DIRECTION ( 'NONE',  ( 0.0000000000000000000, 0.0000000000000000000, 1.000000000000000000 ) ) ;
#201 = EDGE_CURVE ( 'NONE', #136, #35, #182, .T. ) ;
#202 = CARTESIAN_POINT ( 'NONE',  ( 15.25000000000000355, -9.999999999999994671, -6000.000000000000000 ) ) ;
#203 = CARTESIAN_POINT ( 'NONE',  ( 15.25000000000000355, -9.999999999999994671, 0.0000000000000000000 ) ) ;
#204 = LINE ( 'NONE', #306, #228 ) ;
#205 = LINE ( 'NONE', #76, #251 ) ;
#206 = DIRECTION ( 'NONE',  ( -1.224646799147352961E-16, 1.000000000000000000, 0.0000000000000000000 ) ) ;
#207 = EDGE_LOOP ( 'NONE', ( #209, #28, #84, #112, #19, #162, #164, #259 ) ) ;
#208 = AXIS2_PLACEMENT_3D ( 'NONE', #240, #304, #98 ) ;
#209 = ORIENTED_EDGE ( 'NONE', *, *, #282, .F. ) ;
#210 =( NAMED_UNIT ( * ) PLANE_ANGLE_UNIT ( ) SI_UNIT ( $, .RADIAN. ) );
#211 = VERTEX_POINT ( 'NONE', #203 ) ;
#212 = EDGE_LOOP ( 'NONE', ( #116, #160, #285, #184 ) ) ;
#213 = VECTOR ( 'NONE', #200, 1000.000000000000000 ) ;
#214 = EDGE_LOOP ( 'NONE', ( #5, #190, #322, #108 ) ) ;
#215 = EDGE_LOOP ( 'NONE', ( #102, #188, #295, #154 ) ) ;
#216 = EDGE_CURVE ( 'NONE', #136, #7, #100, .T. ) ;
#217 = CARTESIAN_POINT ( 'NONE',  ( 15.25000000000000355, -9.999999999999994671, -6000.000000000000000 ) ) ;
#218 = CARTESIAN_POINT ( 'NONE',  ( -20.24999999999999645, 0.0000000000000000000, -6000.000000000000000 ) ) ;
#219 = FACE_OUTER_BOUND ( 'NONE', #292, .T. ) ;
#220 = ADVANCED_FACE ( 'NONE', ( #72 ), #107, .T. ) ;
#221 = DIRECTION ( 'NONE',  ( -2.478176394252581634E-16, -1.000000000000000000, -0.0000000000000000000 ) ) ;
#222 = CARTESIAN_POINT ( 'NONE',  ( -15.24999999999999645, -10.00000000000000178, -6000.000000000000000 ) ) ;
#223 = DIRECTION ( 'NONE',  ( 0.0000000000000000000, 0.0000000000000000000, 1.000000000000000000 ) ) ;
#224 = ORIENTED_EDGE ( 'NONE', *, *, #151, .F. ) ;
#225 = CARTESIAN_POINT ( 'NONE',  ( 20.25000000000000355, 4.959819536546780600E-15, -6000.000000000000000 ) ) ;
#226 = AXIS2_PLACEMENT_3D ( 'NONE', #227, #51, #53 ) ;
#227 = CARTESIAN_POINT ( 'NONE',  ( 20.25000000000000355, 4.959819536546780600E-15, -6000.000000000000000 ) ) ;
#228 = VECTOR ( 'NONE', #153, 1000.000000000000000 ) ;
#229 = LINE ( 'NONE', #308, #317 ) ;
#230 = ADVANCED_FACE ( 'NONE', ( #25 ), #22, .T. ) ;
#231 = CARTESIAN_POINT ( 'NONE',  ( 0.0000000000000000000, 0.0000000000000000000, 0.0000000000000000000 ) ) ;
#232 = VERTEX_POINT ( 'NONE', #280 ) ;
#233 = VECTOR ( 'NONE', #93, 1000.000000000000000 ) ;
#234 = ORIENTED_EDGE ( 'NONE', *, *, #12, .T. ) ;
#235 = ORIENTED_EDGE ( 'NONE', *, *, #243, .T. ) ;
#236 = DIRECTION ( 'NONE',  ( -2.478176394252580648E-16, 1.000000000000000000, 0.0000000000000000000 ) ) ;
#237 = EDGE_LOOP ( 'NONE', ( #73, #238, #234, #145, #163, #27, #61, #10 ) ) ;
#238 = ORIENTED_EDGE ( 'NONE', *, *, #77, .T. ) ;
#239 = DIRECTION ( 'NONE',  ( 1.000000000000000000, 1.421904488505579408E-16, 0.0000000000000000000 ) ) ;
#240 = CARTESIAN_POINT ( 'NONE',  ( 20.25000000000000355, -9.999999999999994671, -6000.000000000000000 ) ) ;
#241 = DIRECTION ( 'NONE',  ( 0.0000000000000000000, 0.0000000000000000000, 1.000000000000000000 ) ) ;
#242 = CARTESIAN_POINT ( 'NONE',  ( 15.25000000000000533, -2.999999999999994671, -6000.000000000000000 ) ) ;
#243 = EDGE_CURVE ( 'NONE', #232, #139, #229, .T. ) ;
#244 = LINE ( 'NONE', #95, #213 ) ;
#245 = CARTESIAN_POINT ( 'NONE',  ( -20.24999999999999645, 0.0000000000000000000, 0.0000000000000000000 ) ) ;
#246 = CARTESIAN_POINT ( 'NONE',  ( -20.24999999999999645, 0.0000000000000000000, -6000.000000000000000 ) ) ;
#247 = VECTOR ( 'NONE', #66, 1000.000000000000000 ) ;
#248 = PRODUCT_DEFINITION ( 'UNKNOWN', '', #266, #60 ) ;
#249 = LINE ( 'NONE', #156, #29 ) ;
#250 = DIRECTION ( 'NONE',  ( 0.0000000000000000000, 0.0000000000000000000, 1.000000000000000000 ) ) ;
#251 = VECTOR ( 'NONE', #331, 1000.000000000000000 ) ;
#252 = CARTESIAN_POINT ( 'NONE',  ( -20.24999999999999645, 0.0000000000000000000, -6000.000000000000000 ) ) ;
#253 = CARTESIAN_POINT ( 'NONE',  ( 20.25000000000000355, 4.959819536546780600E-15, -6000.000000000000000 ) ) ;
#254 = VERTEX_POINT ( 'NONE', #159 ) ;
#255 = DIRECTION ( 'NONE',  ( 0.0000000000000000000, 0.0000000000000000000, 1.000000000000000000 ) ) ;
#256 = VERTEX_POINT ( 'NONE', #131 ) ;
#257 = PLANE ( 'NONE',  #2 ) ;
#258 =( GEOMETRIC_REPRESENTATION_CONTEXT ( 3 ) GLOBAL_UNCERTAINTY_ASSIGNED_CONTEXT ( ( #185 ) ) GLOBAL_UNIT_ASSIGNED_CONTEXT ( ( #86, #161, #33 ) ) REPRESENTATION_CONTEXT ( 'NONE', 'WORKASPACE' ) );
#259 = ORIENTED_EDGE ( 'NONE', *, *, #181, .F. ) ;
#260 = FACE_OUTER_BOUND ( 'NONE', #237, .T. ) ;
#261 = ORIENTED_EDGE ( 'NONE', *, *, #300, .F. ) ;
#262 =( NAMED_UNIT ( * ) SI_UNIT ( $, .STERADIAN. ) SOLID_ANGLE_UNIT ( ) );
#263 = VERTEX_POINT ( 'NONE', #334 ) ;
#264 =( NAMED_UNIT ( * ) SI_UNIT ( $, .STERADIAN. ) SOLID_ANGLE_UNIT ( ) );
#265 = VERTEX_POINT ( 'NONE', #284 ) ;
#266 = PRODUCT_DEFINITION_FORMATION_WITH_SPECIFIED_SOURCE ( 'ANY', '', #43, .NOT_KNOWN. ) ;
#267 = VECTOR ( 'NONE', #152, 1000.000000000000000 ) ;
#268 = CARTESIAN_POINT ( 'NONE',  ( -15.24999999999999645, -10.00000000000000178, -6000.000000000000000 ) ) ;
#269 = PRODUCT_CONTEXT ( 'NONE', #278, 'mechanical' ) ;
#270 = CARTESIAN_POINT ( 'NONE',  ( 15.25000000000000533, -2.999999999999994671, 0.0000000000000000000 ) ) ;
#271 = DIRECTION ( 'NONE',  ( 1.421904488505579408E-16, -1.000000000000000000, 0.0000000000000000000 ) ) ;
#272 = VECTOR ( 'NONE', #330, 1000.000000000000000 ) ;
#273 = VECTOR ( 'NONE', #70, 1000.000000000000000 ) ;
#274 = CARTESIAN_POINT ( 'NONE',  ( -20.24999999999999645, 0.0000000000000000000, 0.0000000000000000000 ) ) ;
#275 = DIRECTION ( 'NONE',  ( -2.478176394252581141E-16, -1.000000000000000000, 0.0000000000000000000 ) ) ;
#276 = ADVANCED_FACE ( 'NONE', ( #18 ), #176, .T. ) ;
#277 = SURFACE_SIDE_STYLE ('',( #175 ) ) ;
#278 = APPLICATION_CONTEXT ( 'automotive_design' ) ;
#279 = LINE ( 'NONE', #155, #78 ) ;
#280 = CARTESIAN_POINT ( 'NONE',  ( 20.25000000000000355, -9.999999999999994671, -6000.000000000000000 ) ) ;
#281 = VERTEX_POINT ( 'NONE', #20 ) ;
#282 = EDGE_CURVE ( 'NONE', #256, #263, #205, .T. ) ;
#283 = EDGE_CURVE ( 'NONE', #232, #290, #279, .T. ) ;
#284 = CARTESIAN_POINT ( 'NONE',  ( 20.25000000000000355, 4.959819536546780600E-15, 0.0000000000000000000 ) ) ;
#285 = ORIENTED_EDGE ( 'NONE', *, *, #181, .T. ) ;
#286 = DIRECTION ( 'NONE',  ( 1.000000000000000000, 0.0000000000000000000, -0.0000000000000000000 ) ) ;
#287 = CARTESIAN_POINT ( 'NONE',  ( -15.24999999999999645, -10.00000000000000178, 0.0000000000000000000 ) ) ;
#288 = ADVANCED_FACE ( 'NONE', ( #74 ), #3, .T. ) ;
#289 =( NAMED_UNIT ( * ) PLANE_ANGLE_UNIT ( ) SI_UNIT ( $, .RADIAN. ) );
#290 = VERTEX_POINT ( 'NONE', #225 ) ;
#291 = FILL_AREA_STYLE ('',( #90 ) ) ;
#292 = EDGE_LOOP ( 'NONE', ( #140, #333, #114, #235 ) ) ;
#293 = AXIS2_PLACEMENT_3D ( 'NONE', #252, #24, #101 ) ;
#294 = ORIENTED_EDGE ( 'NONE', *, *, #49, .F. ) ;
#295 = ORIENTED_EDGE ( 'NONE', *, *, #282, .T. ) ;
#296 = CARTESIAN_POINT ( 'NONE',  ( -20.24999999999999645, 0.0000000000000000000, 0.0000000000000000000 ) ) ;
#297 = VECTOR ( 'NONE', #171, 1000.000000000000000 ) ;
#298 = LINE ( 'NONE', #65, #272 ) ;
#299 = PRODUCT_DEFINITION_SHAPE ( 'NONE', 'NONE',  #248 ) ;
#300 = EDGE_CURVE ( 'NONE', #290, #265, #305, .T. ) ;
#301 = DIRECTION ( 'NONE',  ( 1.000000000000000000, 1.421904488505579408E-16, -0.0000000000000000000 ) ) ;
#302 = LINE ( 'NONE', #193, #326 ) ;
#303 = PRESENTATION_LAYER_ASSIGNMENT (  '', '', ( #199 ) ) ;
#304 = DIRECTION ( 'NONE',  ( 0.0000000000000000000, -1.000000000000000000, 0.0000000000000000000 ) ) ;
#305 = LINE ( 'NONE', #253, #273 ) ;
#306 = CARTESIAN_POINT ( 'NONE',  ( -20.24999999999999645, -10.00000000000000000, -6000.000000000000000 ) ) ;
#307 = MANIFOLD_SOLID_BREP ( 'Boss-Extrude1', #79 ) ;
#308 = CARTESIAN_POINT ( 'NONE',  ( 20.25000000000000355, -9.999999999999994671, -6000.000000000000000 ) ) ;
#309 = ORIENTED_EDGE ( 'NONE', *, *, #283, .T. ) ;
#310 = DIRECTION ( 'NONE',  ( -2.478176394252580648E-16, 1.000000000000000000, -0.0000000000000000000 ) ) ;
#311 = ADVANCED_FACE ( 'NONE', ( #191 ), #75, .F. ) ;
#312 = DIRECTION ( 'NONE',  ( 1.000000000000000000, -3.469446951953613203E-16, 0.0000000000000000000 ) ) ;
#313 = ADVANCED_FACE ( 'NONE', ( #135 ), #257, .T. ) ;
#314 = PRESENTATION_STYLE_ASSIGNMENT (( #4 ) ) ;
#315 = CARTESIAN_POINT ( 'NONE',  ( 15.25000000000000355, -9.999999999999994671, 0.0000000000000000000 ) ) ;
#316 = EDGE_LOOP ( 'NONE', ( #294, #261, #34, #165 ) ) ;
#317 = VECTOR ( 'NONE', #250, 1000.000000000000000 ) ;
#318 = ORIENTED_EDGE ( 'NONE', *, *, #12, .F. ) ;
#319 = VECTOR ( 'NONE', #83, 1000.000000000000000 ) ;
#320 = MECHANICAL_DESIGN_GEOMETRIC_PRESENTATION_REPRESENTATION (  '', ( #105 ), #99 ) ;
#321 = CARTESIAN_POINT ( 'NONE',  ( -15.24999999999999822, -2.999999999999999112, -6000.000000000000000 ) ) ;
#322 = ORIENTED_EDGE ( 'NONE', *, *, #32, .T. ) ;
#323 = ADVANCED_FACE ( 'NONE', ( #260 ), #141, .T. ) ;
#324 = LINE ( 'NONE', #174, #94 ) ;
#325 = CARTESIAN_POINT ( 'NONE',  ( -15.24999999999999822, -2.999999999999999112, 0.0000000000000000000 ) ) ;
#326 = VECTOR ( 'NONE', #67, 1000.000000000000000 ) ;
#327 = LINE ( 'NONE', #150, #194 ) ;
#328 = PLANE ( 'NONE',  #168 ) ;
#329 = APPLICATION_PROTOCOL_DEFINITION ( 'draft international standard', 'automotive_design', 1998, #85 ) ;
#330 = DIRECTION ( 'NONE',  ( -2.478176394252580648E-16, 1.000000000000000000, -0.0000000000000000000 ) ) ;
#331 = DIRECTION ( 'NONE',  ( 0.0000000000000000000, -1.000000000000000000, 0.0000000000000000000 ) ) ;
#332 = DIRECTION ( 'NONE',  ( 1.000000000000000000, -0.0000000000000000000, -0.0000000000000000000 ) ) ;
#333 = ORIENTED_EDGE ( 'NONE', *, *, #144, .F. ) ;
#334 = CARTESIAN_POINT ( 'NONE',  ( -20.24999999999999645, -10.00000000000000000, -6000.000000000000000 ) ) ;
ENDSEC;
END-ISO-10303-21;
