ISO-10303-21;
HEADER;
FILE_DESCRIPTION (( 'STEP AP214' ),
    '1' );
FILE_NAME ('6FC8CE06-B91C-46F3-AE08-1DEFED14A821.STEP',
    '2023-08-02T08:35:53',
    ( '' ),
    ( '' ),
    'SwSTEP 2.0',
    'SolidWorks 2022',
    '' );
FILE_SCHEMA (( 'AUTOMOTIVE_DESIGN' ));
ENDSEC;

DATA;
#1 = EDGE_CURVE ( 'NONE', #186, #203, #159, .T. ) ;
#2 = ADVANCED_FACE ( 'NONE', ( #298 ), #85, .T. ) ;
#3 = DIRECTION ( 'NONE',  ( 0.0000000000000000000, 0.0000000000000000000, 1.000000000000000000 ) ) ;
#4 = VECTOR ( 'NONE', #37, 1000.000000000000000 ) ;
#5 = PLANE ( 'NONE',  #275 ) ;
#6 = CARTESIAN_POINT ( 'NONE',  ( -20.24999999999999645, 0.0000000000000000000, -3000.000000000000000 ) ) ;
#7 = EDGE_CURVE ( 'NONE', #166, #177, #40, .T. ) ;
#8 = CARTESIAN_POINT ( 'NONE',  ( 20.25000000000000355, 4.959819536546780600E-15, 0.0000000000000000000 ) ) ;
#9 = ORIENTED_EDGE ( 'NONE', *, *, #226, .T. ) ;
#10 = DIRECTION ( 'NONE',  ( -2.478176394252580648E-16, 1.000000000000000000, 0.0000000000000000000 ) ) ;
#11 = VERTEX_POINT ( 'NONE', #83 ) ;
#12 = DIRECTION ( 'NONE',  ( 0.0000000000000000000, 0.0000000000000000000, 1.000000000000000000 ) ) ;
#13 = MECHANICAL_DESIGN_GEOMETRIC_PRESENTATION_REPRESENTATION (  '', ( #39 ), #284 ) ;
#14 = DIRECTION ( 'NONE',  ( 0.0000000000000000000, -0.0000000000000000000, -1.000000000000000000 ) ) ;
#15 = EDGE_CURVE ( 'NONE', #11, #236, #261, .T. ) ;
#16 = VERTEX_POINT ( 'NONE', #294 ) ;
#17 = CARTESIAN_POINT ( 'NONE',  ( 15.25000000000000355, -9.999999999999994671, 0.0000000000000000000 ) ) ;
#18 = SURFACE_SIDE_STYLE ('',( #329 ) ) ;
#19 = VECTOR ( 'NONE', #156, 1000.000000000000000 ) ;
#20 = DIRECTION ( 'NONE',  ( 0.0000000000000000000, -1.000000000000000000, 0.0000000000000000000 ) ) ;
#21 = SURFACE_SIDE_STYLE ('',( #144 ) ) ;
#22 = EDGE_LOOP ( 'NONE', ( #173, #114, #251, #55, #48, #280, #309, #175 ) ) ;
#23 = VECTOR ( 'NONE', #3, 1000.000000000000000 ) ;
#24 = ORIENTED_EDGE ( 'NONE', *, *, #204, .T. ) ;
#25 = EDGE_CURVE ( 'NONE', #166, #71, #191, .T. ) ;
#26 = VECTOR ( 'NONE', #92, 1000.000000000000000 ) ;
#27 = PLANE ( 'NONE',  #122 ) ;
#28 = CARTESIAN_POINT ( 'NONE',  ( -15.24999999999999822, -2.999999999999999112, -3000.000000000000000 ) ) ;
#29 = ORIENTED_EDGE ( 'NONE', *, *, #304, .T. ) ;
#30 = VECTOR ( 'NONE', #328, 1000.000000000000000 ) ;
#31 = CARTESIAN_POINT ( 'NONE',  ( -20.24999999999999645, 0.0000000000000000000, -3000.000000000000000 ) ) ;
#32 = CARTESIAN_POINT ( 'NONE',  ( 15.25000000000000533, -2.999999999999994671, -3000.000000000000000 ) ) ;
#33 = LINE ( 'NONE', #323, #138 ) ;
#34 = DIRECTION ( 'NONE',  ( -2.478176394252581634E-16, -1.000000000000000000, -0.0000000000000000000 ) ) ;
#35 = EDGE_CURVE ( 'NONE', #319, #236, #326, .T. ) ;
#36 = DIRECTION ( 'NONE',  ( 1.000000000000000000, 0.0000000000000000000, -0.0000000000000000000 ) ) ;
#37 = DIRECTION ( 'NONE',  ( -1.000000000000000000, -1.224646799147353207E-16, -0.0000000000000000000 ) ) ;
#38 = FACE_OUTER_BOUND ( 'NONE', #287, .T. ) ;
#39 = STYLED_ITEM ( 'NONE', ( #305 ), #252 ) ;
#40 = LINE ( 'NONE', #32, #19 ) ;
#41 = CARTESIAN_POINT ( 'NONE',  ( 0.0000000000000000000, 0.0000000000000000000, -3000.000000000000000 ) ) ;
#42 = UNCERTAINTY_MEASURE_WITH_UNIT (LENGTH_MEASURE( 1.000000000000000082E-05 ), #270, 'distance_accuracy_value', 'NONE');
#43 = VECTOR ( 'NONE', #57, 1000.000000000000000 ) ;
#44 =( LENGTH_UNIT ( ) NAMED_UNIT ( * ) SI_UNIT ( .MILLI., .METRE. ) );
#45 = VERTEX_POINT ( 'NONE', #135 ) ;
#46 = DIRECTION ( 'NONE',  ( 0.0000000000000000000, 0.0000000000000000000, 1.000000000000000000 ) ) ;
#47 = EDGE_CURVE ( 'NONE', #220, #203, #217, .T. ) ;
#48 = ORIENTED_EDGE ( 'NONE', *, *, #35, .T. ) ;
#49 = FACE_OUTER_BOUND ( 'NONE', #98, .T. ) ;
#50 = APPLICATION_CONTEXT ( 'automotive_design' ) ;
#51 = DIRECTION ( 'NONE',  ( 0.0000000000000000000, 0.0000000000000000000, 1.000000000000000000 ) ) ;
#52 = EDGE_LOOP ( 'NONE', ( #128, #181, #282, #205 ) ) ;
#53 = EDGE_CURVE ( 'NONE', #300, #71, #241, .T. ) ;
#54 = PLANE ( 'NONE',  #171 ) ;
#55 = ORIENTED_EDGE ( 'NONE', *, *, #142, .T. ) ;
#56 = CARTESIAN_POINT ( 'NONE',  ( 15.25000000000000355, -9.999999999999994671, -3000.000000000000000 ) ) ;
#57 = DIRECTION ( 'NONE',  ( 0.0000000000000000000, 0.0000000000000000000, 1.000000000000000000 ) ) ;
#58 = LINE ( 'NONE', #255, #246 ) ;
#59 = CARTESIAN_POINT ( 'NONE',  ( 15.25000000000000355, -9.999999999999994671, -3000.000000000000000 ) ) ;
#60 = EDGE_CURVE ( 'NONE', #203, #265, #222, .T. ) ;
#61 = LINE ( 'NONE', #332, #129 ) ;
#62 = VERTEX_POINT ( 'NONE', #303 ) ;
#63 = VECTOR ( 'NONE', #322, 1000.000000000000000 ) ;
#64 = DIRECTION ( 'NONE',  ( 0.0000000000000000000, 0.0000000000000000000, 1.000000000000000000 ) ) ;
#65 = CARTESIAN_POINT ( 'NONE',  ( -15.24999999999999822, -2.999999999999999112, 0.0000000000000000000 ) ) ;
#66 = CARTESIAN_POINT ( 'NONE',  ( 15.25000000000000355, -9.999999999999994671, -3000.000000000000000 ) ) ;
#67 = FACE_OUTER_BOUND ( 'NONE', #258, .T. ) ;
#68 = EDGE_LOOP ( 'NONE', ( #317, #141, #170, #152 ) ) ;
#69 = DIRECTION ( 'NONE',  ( -2.478176394252581141E-16, -1.000000000000000000, 0.0000000000000000000 ) ) ;
#70 = MECHANICAL_DESIGN_GEOMETRIC_PRESENTATION_REPRESENTATION (  '', ( #269 ), #233 ) ;
#71 = VERTEX_POINT ( 'NONE', #65 ) ;
#72 =( NAMED_UNIT ( * ) PLANE_ANGLE_UNIT ( ) SI_UNIT ( $, .RADIAN. ) );
#73 = ORIENTED_EDGE ( 'NONE', *, *, #187, .F. ) ;
#74 = VECTOR ( 'NONE', #20, 1000.000000000000000 ) ;
#75 = ORIENTED_EDGE ( 'NONE', *, *, #1, .F. ) ;
#76 = ADVANCED_FACE ( 'NONE', ( #49 ), #27, .T. ) ;
#77 = PLANE ( 'NONE',  #198 ) ;
#78 =( NAMED_UNIT ( * ) SI_UNIT ( $, .STERADIAN. ) SOLID_ANGLE_UNIT ( ) );
#79 = DIRECTION ( 'NONE',  ( 0.0000000000000000000, 0.0000000000000000000, 1.000000000000000000 ) ) ;
#80 = ORIENTED_EDGE ( 'NONE', *, *, #81, .T. ) ;
#81 = EDGE_CURVE ( 'NONE', #45, #62, #84, .T. ) ;
#82 = CARTESIAN_POINT ( 'NONE',  ( -20.24999999999999645, -10.00000000000000000, -3000.000000000000000 ) ) ;
#83 = CARTESIAN_POINT ( 'NONE',  ( 15.25000000000000355, -9.999999999999994671, -3000.000000000000000 ) ) ;
#84 = LINE ( 'NONE', #125, #107 ) ;
#85 = PLANE ( 'NONE',  #153 ) ;
#86 = VECTOR ( 'NONE', #161, 1000.000000000000000 ) ;
#87 = DIRECTION ( 'NONE',  ( -2.478176394252580648E-16, 1.000000000000000000, -0.0000000000000000000 ) ) ;
#88 = CARTESIAN_POINT ( 'NONE',  ( -20.24999999999999645, 0.0000000000000000000, 0.0000000000000000000 ) ) ;
#89 = DIRECTION ( 'NONE',  ( -1.000000000000000000, -1.224646799147353207E-16, -0.0000000000000000000 ) ) ;
#90 = DIRECTION ( 'NONE',  ( 0.0000000000000000000, -1.000000000000000000, 0.0000000000000000000 ) ) ;
#91 = CARTESIAN_POINT ( 'NONE',  ( 15.25000000000000533, -2.999999999999994671, 0.0000000000000000000 ) ) ;
#92 = DIRECTION ( 'NONE',  ( 0.0000000000000000000, -1.000000000000000000, 0.0000000000000000000 ) ) ;
#93 = DIRECTION ( 'NONE',  ( 1.421904488505579408E-16, -1.000000000000000000, 0.0000000000000000000 ) ) ;
#94 = UNCERTAINTY_MEASURE_WITH_UNIT (LENGTH_MEASURE( 1.000000000000000082E-05 ), #334, 'distance_accuracy_value', 'NONE');
#95 = LINE ( 'NONE', #112, #314 ) ;
#96 = ORIENTED_EDGE ( 'NONE', *, *, #35, .F. ) ;
#97 = PRODUCT_DEFINITION ( 'UNKNOWN', '', #108, #306 ) ;
#98 = EDGE_LOOP ( 'NONE', ( #227, #213, #29, #250 ) ) ;
#99 = CARTESIAN_POINT ( 'NONE',  ( 20.25000000000000355, 4.959819536546780600E-15, -3000.000000000000000 ) ) ;
#100 = LINE ( 'NONE', #212, #308 ) ;
#101 = ORIENTED_EDGE ( 'NONE', *, *, #116, .F. ) ;
#102 = PLANE ( 'NONE',  #183 ) ;
#103 = ORIENTED_EDGE ( 'NONE', *, *, #60, .F. ) ;
#104 = EDGE_CURVE ( 'NONE', #177, #319, #216, .T. ) ;
#105 = FACE_OUTER_BOUND ( 'NONE', #106, .T. ) ;
#106 = EDGE_LOOP ( 'NONE', ( #324, #243, #247, #215 ) ) ;
#107 = VECTOR ( 'NONE', #51, 1000.000000000000000 ) ;
#108 = PRODUCT_DEFINITION_FORMATION_WITH_SPECIFIED_SOURCE ( 'ANY', '', #111, .NOT_KNOWN. ) ;
#109 = CARTESIAN_POINT ( 'NONE',  ( -15.24999999999999645, -10.00000000000000178, -3000.000000000000000 ) ) ;
#110 = VERTEX_POINT ( 'NONE', #82 ) ;
#111 = PRODUCT ( '6FC8CE06-B91C-46F3-AE08-1DEFED14A821', '6FC8CE06-B91C-46F3-AE08-1DEFED14A821', '', ( #228 ) ) ;
#112 = CARTESIAN_POINT ( 'NONE',  ( 20.25000000000000355, 4.959819536546780600E-15, 0.0000000000000000000 ) ) ;
#113 = FILL_AREA_STYLE ('',( #271 ) ) ;
#114 = ORIENTED_EDGE ( 'NONE', *, *, #286, .T. ) ;
#115 =( NAMED_UNIT ( * ) PLANE_ANGLE_UNIT ( ) SI_UNIT ( $, .RADIAN. ) );
#116 = EDGE_CURVE ( 'NONE', #238, #166, #58, .T. ) ;
#117 = PRESENTATION_LAYER_ASSIGNMENT (  '', '', ( #39 ) ) ;
#118 = CARTESIAN_POINT ( 'NONE',  ( -20.24999999999999645, 0.0000000000000000000, -3000.000000000000000 ) ) ;
#119 =( NAMED_UNIT ( * ) PLANE_ANGLE_UNIT ( ) SI_UNIT ( $, .RADIAN. ) );
#120 = SURFACE_STYLE_USAGE ( .BOTH. , #21 ) ;
#121 = EDGE_CURVE ( 'NONE', #238, #300, #163, .T. ) ;
#122 = AXIS2_PLACEMENT_3D ( 'NONE', #190, #192, #259 ) ;
#123 = ORIENTED_EDGE ( 'NONE', *, *, #289, .T. ) ;
#124 = APPLICATION_PROTOCOL_DEFINITION ( 'draft international standard', 'automotive_design', 1998, #50 ) ;
#125 = CARTESIAN_POINT ( 'NONE',  ( 20.25000000000000355, -9.999999999999994671, -3000.000000000000000 ) ) ;
#126 = ORIENTED_EDGE ( 'NONE', *, *, #147, .T. ) ;
#127 = LINE ( 'NONE', #231, #260 ) ;
#128 = ORIENTED_EDGE ( 'NONE', *, *, #53, .F. ) ;
#129 = VECTOR ( 'NONE', #194, 1000.000000000000000 ) ;
#130 = COLOUR_RGB ( '',0.1254901960784313708, 0.1254901960784313708, 0.1254901960784313708 ) ;
#131 = DIRECTION ( 'NONE',  ( -1.000000000000000000, -1.224646799147352961E-16, 0.0000000000000000000 ) ) ;
#132 = ORIENTED_EDGE ( 'NONE', *, *, #1, .T. ) ;
#133 = ADVANCED_FACE ( 'NONE', ( #257 ), #293, .T. ) ;
#134 = DIRECTION ( 'NONE',  ( 1.000000000000000000, 1.421904488505579408E-16, -0.0000000000000000000 ) ) ;
#135 = CARTESIAN_POINT ( 'NONE',  ( 20.25000000000000355, -9.999999999999994671, -3000.000000000000000 ) ) ;
#136 = CARTESIAN_POINT ( 'NONE',  ( 20.25000000000000355, -9.999999999999994671, -3000.000000000000000 ) ) ;
#137 = ORIENTED_EDGE ( 'NONE', *, *, #207, .F. ) ;
#138 = VECTOR ( 'NONE', #134, 1000.000000000000000 ) ;
#139 = UNCERTAINTY_MEASURE_WITH_UNIT (LENGTH_MEASURE( 1.000000000000000082E-05 ), #44, 'distance_accuracy_value', 'NONE');
#140 = DIRECTION ( 'NONE',  ( -0.0000000000000000000, 1.000000000000000000, -0.0000000000000000000 ) ) ;
#141 = ORIENTED_EDGE ( 'NONE', *, *, #25, .F. ) ;
#142 = EDGE_CURVE ( 'NONE', #71, #319, #33, .T. ) ;
#143 = SURFACE_STYLE_USAGE ( .BOTH. , #18 ) ;
#144 = SURFACE_STYLE_FILL_AREA ( #113 ) ;
#145 = CARTESIAN_POINT ( 'NONE',  ( 20.25000000000000355, 4.959819536546780600E-15, -3000.000000000000000 ) ) ;
#146 = DIRECTION ( 'NONE',  ( -1.000000000000000000, 0.0000000000000000000, 0.0000000000000000000 ) ) ;
#147 = EDGE_CURVE ( 'NONE', #177, #11, #316, .T. ) ;
#148 = EDGE_LOOP ( 'NONE', ( #137, #263, #249, #80 ) ) ;
#149 = DIRECTION ( 'NONE',  ( -1.000000000000000000, 2.478176394252581141E-16, 0.0000000000000000000 ) ) ;
#150 = ORIENTED_EDGE ( 'NONE', *, *, #272, .F. ) ;
#151 = SHAPE_DEFINITION_REPRESENTATION ( #253, #281 ) ;
#152 = ORIENTED_EDGE ( 'NONE', *, *, #104, .T. ) ;
#153 = AXIS2_PLACEMENT_3D ( 'NONE', #164, #90, #14 ) ;
#154 = DIRECTION ( 'NONE',  ( -3.469446951953613203E-16, -1.000000000000000000, 0.0000000000000000000 ) ) ;
#155 = LINE ( 'NONE', #136, #86 ) ;
#156 = DIRECTION ( 'NONE',  ( 1.000000000000000000, 1.421904488505579408E-16, -0.0000000000000000000 ) ) ;
#157 = EDGE_CURVE ( 'NONE', #11, #45, #155, .T. ) ;
#158 = DIRECTION ( 'NONE',  ( 0.0000000000000000000, 0.0000000000000000000, 1.000000000000000000 ) ) ;
#159 = LINE ( 'NONE', #6, #63 ) ;
#160 = VECTOR ( 'NONE', #208, 1000.000000000000000 ) ;
#161 = DIRECTION ( 'NONE',  ( 1.000000000000000000, -0.0000000000000000000, -0.0000000000000000000 ) ) ;
#162 = CARTESIAN_POINT ( 'NONE',  ( 15.25000000000000355, -9.999999999999994671, 0.0000000000000000000 ) ) ;
#163 = LINE ( 'NONE', #264, #229 ) ;
#164 = CARTESIAN_POINT ( 'NONE',  ( 20.25000000000000355, -9.999999999999994671, -3000.000000000000000 ) ) ;
#165 = APPLICATION_PROTOCOL_DEFINITION ( 'draft international standard', 'automotive_design', 1998, #307 ) ;
#166 = VERTEX_POINT ( 'NONE', #28 ) ;
#167 = AXIS2_PLACEMENT_3D ( 'NONE', #240, #12, #36 ) ;
#168 = LINE ( 'NONE', #266, #179 ) ;
#169 = FILL_AREA_STYLE_COLOUR ( '', #333 ) ;
#170 = ORIENTED_EDGE ( 'NONE', *, *, #7, .T. ) ;
#171 = AXIS2_PLACEMENT_3D ( 'NONE', #31, #235, #131 ) ;
#172 = CARTESIAN_POINT ( 'NONE',  ( -20.24999999999999645, -10.00000000000000000, 0.0000000000000000000 ) ) ;
#173 = ORIENTED_EDGE ( 'NONE', *, *, #60, .T. ) ;
#174 = CARTESIAN_POINT ( 'NONE',  ( 0.0000000000000000000, 0.0000000000000000000, 0.0000000000000000000 ) ) ;
#175 = ORIENTED_EDGE ( 'NONE', *, *, #47, .T. ) ;
#176 = DIRECTION ( 'NONE',  ( 1.000000000000000000, 0.0000000000000000000, 0.0000000000000000000 ) ) ;
#177 = VERTEX_POINT ( 'NONE', #262 ) ;
#178 = ADVANCED_FACE ( 'NONE', ( #313 ), #77, .T. ) ;
#179 = VECTOR ( 'NONE', #278, 1000.000000000000000 ) ;
#180 = AXIS2_PLACEMENT_3D ( 'NONE', #245, #146, #64 ) ;
#181 = ORIENTED_EDGE ( 'NONE', *, *, #121, .F. ) ;
#182 = LINE ( 'NONE', #99, #330 ) ;
#183 = AXIS2_PLACEMENT_3D ( 'NONE', #214, #93, #202 ) ;
#184 = VECTOR ( 'NONE', #140, 1000.000000000000000 ) ;
#185 = DIRECTION ( 'NONE',  ( 1.000000000000000000, -3.469446951953613203E-16, 0.0000000000000000000 ) ) ;
#186 = VERTEX_POINT ( 'NONE', #230 ) ;
#187 = EDGE_CURVE ( 'NONE', #16, #220, #182, .T. ) ;
#188 = FACE_OUTER_BOUND ( 'NONE', #234, .T. ) ;
#189 = DIRECTION ( 'NONE',  ( 0.0000000000000000000, 0.0000000000000000000, 1.000000000000000000 ) ) ;
#190 = CARTESIAN_POINT ( 'NONE',  ( 20.25000000000000355, 4.959819536546780600E-15, -3000.000000000000000 ) ) ;
#191 = LINE ( 'NONE', #296, #43 ) ;
#192 = DIRECTION ( 'NONE',  ( 1.000000000000000000, 0.0000000000000000000, -0.0000000000000000000 ) ) ;
#193 = ORIENTED_EDGE ( 'NONE', *, *, #7, .F. ) ;
#194 = DIRECTION ( 'NONE',  ( 1.000000000000000000, -3.469446951953613696E-16, 0.0000000000000000000 ) ) ;
#195 = CARTESIAN_POINT ( 'NONE',  ( -15.24999999999999822, -2.999999999999999112, 0.0000000000000000000 ) ) ;
#196 = FACE_OUTER_BOUND ( 'NONE', #310, .T. ) ;
#197 = CARTESIAN_POINT ( 'NONE',  ( -20.24999999999999645, 0.0000000000000000000, 0.0000000000000000000 ) ) ;
#198 = AXIS2_PLACEMENT_3D ( 'NONE', #209, #237, #10 ) ;
#199 =( GEOMETRIC_REPRESENTATION_CONTEXT ( 3 ) GLOBAL_UNCERTAINTY_ASSIGNED_CONTEXT ( ( #42 ) ) GLOBAL_UNIT_ASSIGNED_CONTEXT ( ( #270, #119, #78 ) ) REPRESENTATION_CONTEXT ( 'NONE', 'WORKASPACE' ) );
#200 = ADVANCED_FACE ( 'NONE', ( #105 ), #5, .T. ) ;
#201 = DIRECTION ( 'NONE',  ( -0.0000000000000000000, 1.000000000000000000, -0.0000000000000000000 ) ) ;
#202 = DIRECTION ( 'NONE',  ( 1.000000000000000000, 1.421904488505579408E-16, 0.0000000000000000000 ) ) ;
#203 = VERTEX_POINT ( 'NONE', #290 ) ;
#204 = EDGE_CURVE ( 'NONE', #110, #265, #127, .T. ) ;
#205 = ORIENTED_EDGE ( 'NONE', *, *, #25, .T. ) ;
#206 = AXIS2_PLACEMENT_3D ( 'NONE', #66, #149, #69 ) ;
#207 = EDGE_CURVE ( 'NONE', #236, #62, #100, .T. ) ;
#208 = DIRECTION ( 'NONE',  ( -2.478176394252581634E-16, -1.000000000000000000, -0.0000000000000000000 ) ) ;
#209 = CARTESIAN_POINT ( 'NONE',  ( -15.24999999999999822, -2.999999999999999112, -3000.000000000000000 ) ) ;
#210 = ORIENTED_EDGE ( 'NONE', *, *, #226, .F. ) ;
#211 = PRESENTATION_LAYER_ASSIGNMENT (  '', '', ( #269 ) ) ;
#212 = CARTESIAN_POINT ( 'NONE',  ( 20.25000000000000355, -9.999999999999994671, 0.0000000000000000000 ) ) ;
#213 = ORIENTED_EDGE ( 'NONE', *, *, #81, .F. ) ;
#214 = CARTESIAN_POINT ( 'NONE',  ( 15.25000000000000533, -2.999999999999994671, -3000.000000000000000 ) ) ;
#215 = ORIENTED_EDGE ( 'NONE', *, *, #121, .T. ) ;
#216 = LINE ( 'NONE', #297, #23 ) ;
#217 = LINE ( 'NONE', #88, #4 ) ;
#218 = ADVANCED_FACE ( 'NONE', ( #188 ), #54, .T. ) ;
#219 = PLANE ( 'NONE',  #206 ) ;
#220 = VERTEX_POINT ( 'NONE', #8 ) ;
#221 = CARTESIAN_POINT ( 'NONE',  ( -15.24999999999999645, -10.00000000000000178, 0.0000000000000000000 ) ) ;
#222 = LINE ( 'NONE', #197, #26 ) ;
#223 =( NAMED_UNIT ( * ) SI_UNIT ( $, .STERADIAN. ) SOLID_ANGLE_UNIT ( ) );
#224 = ADVANCED_FACE ( 'NONE', ( #321 ), #102, .T. ) ;
#225 = VECTOR ( 'NONE', #89, 1000.000000000000000 ) ;
#226 = EDGE_CURVE ( 'NONE', #16, #186, #242, .T. ) ;
#227 = ORIENTED_EDGE ( 'NONE', *, *, #232, .F. ) ;
#228 = PRODUCT_CONTEXT ( 'NONE', #307, 'mechanical' ) ;
#229 = VECTOR ( 'NONE', #295, 1000.000000000000000 ) ;
#230 = CARTESIAN_POINT ( 'NONE',  ( -20.24999999999999645, 0.0000000000000000000, -3000.000000000000000 ) ) ;
#231 = CARTESIAN_POINT ( 'NONE',  ( -20.24999999999999645, -10.00000000000000000, -3000.000000000000000 ) ) ;
#232 = EDGE_CURVE ( 'NONE', #62, #220, #95, .T. ) ;
#233 =( GEOMETRIC_REPRESENTATION_CONTEXT ( 3 ) GLOBAL_UNCERTAINTY_ASSIGNED_CONTEXT ( ( #94 ) ) GLOBAL_UNIT_ASSIGNED_CONTEXT ( ( #334, #72, #283 ) ) REPRESENTATION_CONTEXT ( 'NONE', 'WORKASPACE' ) );
#234 = EDGE_LOOP ( 'NONE', ( #285, #73, #9, #132 ) ) ;
#235 = DIRECTION ( 'NONE',  ( -1.224646799147352961E-16, 1.000000000000000000, 0.0000000000000000000 ) ) ;
#236 = VERTEX_POINT ( 'NONE', #17 ) ;
#237 = DIRECTION ( 'NONE',  ( 1.000000000000000000, 2.478176394252580648E-16, -0.0000000000000000000 ) ) ;
#238 = VERTEX_POINT ( 'NONE', #109 ) ;
#239 = ADVANCED_FACE ( 'NONE', ( #196 ), #219, .T. ) ;
#240 = CARTESIAN_POINT ( 'NONE',  ( 0.0000000000000000000, 0.0000000000000000000, 0.0000000000000000000 ) ) ;
#241 = LINE ( 'NONE', #195, #30 ) ;
#242 = LINE ( 'NONE', #331, #225 ) ;
#243 = ORIENTED_EDGE ( 'NONE', *, *, #204, .F. ) ;
#244 = PRESENTATION_STYLE_ASSIGNMENT (( #120 ) ) ;
#245 = CARTESIAN_POINT ( 'NONE',  ( -20.24999999999999645, 0.0000000000000000000, -3000.000000000000000 ) ) ;
#246 = VECTOR ( 'NONE', #87, 1000.000000000000000 ) ;
#247 = ORIENTED_EDGE ( 'NONE', *, *, #272, .T. ) ;
#248 = PLANE ( 'NONE',  #276 ) ;
#249 = ORIENTED_EDGE ( 'NONE', *, *, #157, .T. ) ;
#250 = ORIENTED_EDGE ( 'NONE', *, *, #187, .T. ) ;
#251 = ORIENTED_EDGE ( 'NONE', *, *, #53, .T. ) ;
#252 = MANIFOLD_SOLID_BREP ( 'Boss-Extrude1', #268 ) ;
#253 = PRODUCT_DEFINITION_SHAPE ( 'NONE', 'NONE',  #97 ) ;
#254 = VECTOR ( 'NONE', #189, 1000.000000000000000 ) ;
#255 = CARTESIAN_POINT ( 'NONE',  ( -15.24999999999999822, -2.999999999999999112, -3000.000000000000000 ) ) ;
#256 = ORIENTED_EDGE ( 'NONE', *, *, #157, .F. ) ;
#257 = FACE_OUTER_BOUND ( 'NONE', #22, .T. ) ;
#258 = EDGE_LOOP ( 'NONE', ( #103, #75, #123, #24 ) ) ;
#259 = DIRECTION ( 'NONE',  ( -0.0000000000000000000, 0.0000000000000000000, -1.000000000000000000 ) ) ;
#260 = VECTOR ( 'NONE', #158, 1000.000000000000000 ) ;
#261 = LINE ( 'NONE', #59, #254 ) ;
#262 = CARTESIAN_POINT ( 'NONE',  ( 15.25000000000000533, -2.999999999999994671, -3000.000000000000000 ) ) ;
#263 = ORIENTED_EDGE ( 'NONE', *, *, #15, .F. ) ;
#264 = CARTESIAN_POINT ( 'NONE',  ( -15.24999999999999645, -10.00000000000000178, -3000.000000000000000 ) ) ;
#265 = VERTEX_POINT ( 'NONE', #172 ) ;
#266 = CARTESIAN_POINT ( 'NONE',  ( -20.24999999999999645, -10.00000000000000000, 0.0000000000000000000 ) ) ;
#267 = ORIENTED_EDGE ( 'NONE', *, *, #104, .F. ) ;
#268 = CLOSED_SHELL ( 'NONE', ( #320, #218, #76, #2, #239, #224, #178, #200, #292, #133 ) ) ;
#269 = STYLED_ITEM ( 'NONE', ( #244 ), #281 ) ;
#270 =( LENGTH_UNIT ( ) NAMED_UNIT ( * ) SI_UNIT ( .MILLI., .METRE. ) );
#271 = FILL_AREA_STYLE_COLOUR ( '', #130 ) ;
#272 = EDGE_CURVE ( 'NONE', #110, #238, #61, .T. ) ;
#273 = LINE ( 'NONE', #118, #74 ) ;
#274 = FILL_AREA_STYLE ('',( #169 ) ) ;
#275 = AXIS2_PLACEMENT_3D ( 'NONE', #288, #154, #185 ) ;
#276 = AXIS2_PLACEMENT_3D ( 'NONE', #41, #325, #299 ) ;
#277 = ORIENTED_EDGE ( 'NONE', *, *, #15, .T. ) ;
#278 = DIRECTION ( 'NONE',  ( 1.000000000000000000, -3.469446951953613696E-16, 0.0000000000000000000 ) ) ;
#279 = PRODUCT_RELATED_PRODUCT_CATEGORY ( 'part', '', ( #111 ) ) ;
#280 = ORIENTED_EDGE ( 'NONE', *, *, #207, .T. ) ;
#281 = ADVANCED_BREP_SHAPE_REPRESENTATION ( '6FC8CE06-B91C-46F3-AE08-1DEFED14A821', ( #252, #315 ), #199 ) ;
#282 = ORIENTED_EDGE ( 'NONE', *, *, #116, .T. ) ;
#283 =( NAMED_UNIT ( * ) SI_UNIT ( $, .STERADIAN. ) SOLID_ANGLE_UNIT ( ) );
#284 =( GEOMETRIC_REPRESENTATION_CONTEXT ( 3 ) GLOBAL_UNCERTAINTY_ASSIGNED_CONTEXT ( ( #139 ) ) GLOBAL_UNIT_ASSIGNED_CONTEXT ( ( #44, #115, #223 ) ) REPRESENTATION_CONTEXT ( 'NONE', 'WORKASPACE' ) );
#285 = ORIENTED_EDGE ( 'NONE', *, *, #47, .F. ) ;
#286 = EDGE_CURVE ( 'NONE', #265, #300, #168, .T. ) ;
#287 = EDGE_LOOP ( 'NONE', ( #312, #210, #291, #256, #311, #193, #101, #150 ) ) ;
#288 = CARTESIAN_POINT ( 'NONE',  ( -20.24999999999999645, -10.00000000000000000, -3000.000000000000000 ) ) ;
#289 = EDGE_CURVE ( 'NONE', #186, #110, #273, .T. ) ;
#290 = CARTESIAN_POINT ( 'NONE',  ( -20.24999999999999645, 0.0000000000000000000, 0.0000000000000000000 ) ) ;
#291 = ORIENTED_EDGE ( 'NONE', *, *, #304, .F. ) ;
#292 = ADVANCED_FACE ( 'NONE', ( #38 ), #248, .F. ) ;
#293 = PLANE ( 'NONE',  #167 ) ;
#294 = CARTESIAN_POINT ( 'NONE',  ( 20.25000000000000355, 4.959819536546780600E-15, -3000.000000000000000 ) ) ;
#295 = DIRECTION ( 'NONE',  ( 0.0000000000000000000, 0.0000000000000000000, 1.000000000000000000 ) ) ;
#296 = CARTESIAN_POINT ( 'NONE',  ( -15.24999999999999822, -2.999999999999999112, -3000.000000000000000 ) ) ;
#297 = CARTESIAN_POINT ( 'NONE',  ( 15.25000000000000533, -2.999999999999994671, -3000.000000000000000 ) ) ;
#298 = FACE_OUTER_BOUND ( 'NONE', #148, .T. ) ;
#299 = DIRECTION ( 'NONE',  ( 1.000000000000000000, 0.0000000000000000000, -0.0000000000000000000 ) ) ;
#300 = VERTEX_POINT ( 'NONE', #221 ) ;
#301 = PLANE ( 'NONE',  #180 ) ;
#302 = VECTOR ( 'NONE', #34, 1000.000000000000000 ) ;
#303 = CARTESIAN_POINT ( 'NONE',  ( 20.25000000000000355, -9.999999999999994671, 0.0000000000000000000 ) ) ;
#304 = EDGE_CURVE ( 'NONE', #45, #16, #327, .T. ) ;
#305 = PRESENTATION_STYLE_ASSIGNMENT (( #143 ) ) ;
#306 = PRODUCT_DEFINITION_CONTEXT ( 'detailed design', #50, 'design' ) ;
#307 = APPLICATION_CONTEXT ( 'automotive_design' ) ;
#308 = VECTOR ( 'NONE', #318, 1000.000000000000000 ) ;
#309 = ORIENTED_EDGE ( 'NONE', *, *, #232, .T. ) ;
#310 = EDGE_LOOP ( 'NONE', ( #96, #267, #126, #277 ) ) ;
#311 = ORIENTED_EDGE ( 'NONE', *, *, #147, .F. ) ;
#312 = ORIENTED_EDGE ( 'NONE', *, *, #289, .F. ) ;
#313 = FACE_OUTER_BOUND ( 'NONE', #52, .T. ) ;
#314 = VECTOR ( 'NONE', #201, 1000.000000000000000 ) ;
#315 = AXIS2_PLACEMENT_3D ( 'NONE', #174, #46, #176 ) ;
#316 = LINE ( 'NONE', #56, #160 ) ;
#317 = ORIENTED_EDGE ( 'NONE', *, *, #142, .F. ) ;
#318 = DIRECTION ( 'NONE',  ( 1.000000000000000000, -0.0000000000000000000, -0.0000000000000000000 ) ) ;
#319 = VERTEX_POINT ( 'NONE', #91 ) ;
#320 = ADVANCED_FACE ( 'NONE', ( #67 ), #301, .T. ) ;
#321 = FACE_OUTER_BOUND ( 'NONE', #68, .T. ) ;
#322 = DIRECTION ( 'NONE',  ( 0.0000000000000000000, 0.0000000000000000000, 1.000000000000000000 ) ) ;
#323 = CARTESIAN_POINT ( 'NONE',  ( 15.25000000000000533, -2.999999999999994671, 0.0000000000000000000 ) ) ;
#324 = ORIENTED_EDGE ( 'NONE', *, *, #286, .F. ) ;
#325 = DIRECTION ( 'NONE',  ( 0.0000000000000000000, 0.0000000000000000000, 1.000000000000000000 ) ) ;
#326 = LINE ( 'NONE', #162, #302 ) ;
#327 = LINE ( 'NONE', #145, #184 ) ;
#328 = DIRECTION ( 'NONE',  ( -2.478176394252580648E-16, 1.000000000000000000, -0.0000000000000000000 ) ) ;
#329 = SURFACE_STYLE_FILL_AREA ( #274 ) ;
#330 = VECTOR ( 'NONE', #79, 1000.000000000000000 ) ;
#331 = CARTESIAN_POINT ( 'NONE',  ( -20.24999999999999645, 0.0000000000000000000, -3000.000000000000000 ) ) ;
#332 = CARTESIAN_POINT ( 'NONE',  ( -20.24999999999999645, -10.00000000000000000, -3000.000000000000000 ) ) ;
#333 = COLOUR_RGB ( '',0.1254901960784313708, 0.1254901960784313708, 0.1254901960784313708 ) ;
#334 =( LENGTH_UNIT ( ) NAMED_UNIT ( * ) SI_UNIT ( .MILLI., .METRE. ) );
ENDSEC;
END-ISO-10303-21;
