ISO-10303-21;
HEADER;
FILE_DESCRIPTION (( 'STEP AP214' ),
    '1' );
FILE_NAME ('7B928115-DDEC-4E75-ABEC-D47D9D69578B.STEP',
    '2023-08-02T08:16:10',
    ( '' ),
    ( '' ),
    'SwSTEP 2.0',
    'SolidWorks 2022',
    '' );
FILE_SCHEMA (( 'AUTOMOTIVE_DESIGN' ));
ENDSEC;

DATA;
#1 = EDGE_CURVE ( 'NONE', #212, #85, #134, .T. ) ;
#2 = CARTESIAN_POINT ( 'NONE',  ( -15.24999999999999822, -2.999999999999999112, -6000.000000000000000 ) ) ;
#3 = EDGE_CURVE ( 'NONE', #259, #136, #193, .T. ) ;
#4 = CARTESIAN_POINT ( 'NONE',  ( 15.25000000000000355, -9.999999999999994671, -6000.000000000000000 ) ) ;
#5 = LINE ( 'NONE', #242, #128 ) ;
#6 = SURFACE_STYLE_USAGE ( .BOTH. , #65 ) ;
#7 = VECTOR ( 'NONE', #299, 1000.000000000000000 ) ;
#8 = EDGE_LOOP ( 'NONE', ( #118, #230, #119, #62 ) ) ;
#9 = CARTESIAN_POINT ( 'NONE',  ( -20.24999999999999645, 0.0000000000000000000, -6000.000000000000000 ) ) ;
#10 = VERTEX_POINT ( 'NONE', #46 ) ;
#11 = EDGE_LOOP ( 'NONE', ( #293, #82, #39, #207, #60, #15, #288, #320 ) ) ;
#12 = DIRECTION ( 'NONE',  ( 1.000000000000000000, 0.0000000000000000000, -0.0000000000000000000 ) ) ;
#13 = ORIENTED_EDGE ( 'NONE', *, *, #292, .T. ) ;
#14 = EDGE_CURVE ( 'NONE', #85, #25, #121, .T. ) ;
#15 = ORIENTED_EDGE ( 'NONE', *, *, #279, .F. ) ;
#16 = CARTESIAN_POINT ( 'NONE',  ( 20.25000000000000355, -9.999999999999994671, -6000.000000000000000 ) ) ;
#17 = PRODUCT_CONTEXT ( 'NONE', #225, 'mechanical' ) ;
#18 = FACE_OUTER_BOUND ( 'NONE', #240, .T. ) ;
#19 = SURFACE_STYLE_USAGE ( .BOTH. , #148 ) ;
#20 = LINE ( 'NONE', #50, #57 ) ;
#21 = CARTESIAN_POINT ( 'NONE',  ( 20.25000000000000355, 4.959819536546780600E-15, -6000.000000000000000 ) ) ;
#22 = COLOUR_RGB ( '',0.0000000000000000000, 1.000000000000000000, 0.0000000000000000000 ) ;
#23 = FACE_OUTER_BOUND ( 'NONE', #183, .T. ) ;
#24 = CARTESIAN_POINT ( 'NONE',  ( 15.25000000000000533, -2.999999999999994671, -6000.000000000000000 ) ) ;
#25 = VERTEX_POINT ( 'NONE', #49 ) ;
#26 = CARTESIAN_POINT ( 'NONE',  ( 20.25000000000000355, -9.999999999999994671, 0.0000000000000000000 ) ) ;
#27 = MECHANICAL_DESIGN_GEOMETRIC_PRESENTATION_REPRESENTATION (  '', ( #71 ), #204 ) ;
#28 = FACE_OUTER_BOUND ( 'NONE', #298, .T. ) ;
#29 = CARTESIAN_POINT ( 'NONE',  ( 20.25000000000000355, 4.959819536546780600E-15, -6000.000000000000000 ) ) ;
#30 =( LENGTH_UNIT ( ) NAMED_UNIT ( * ) SI_UNIT ( .MILLI., .METRE. ) );
#31 = EDGE_CURVE ( 'NONE', #160, #177, #273, .T. ) ;
#32 = EDGE_LOOP ( 'NONE', ( #243, #239, #37, #64 ) ) ;
#33 = DIRECTION ( 'NONE',  ( -1.224646799147352961E-16, 1.000000000000000000, 0.0000000000000000000 ) ) ;
#34 = AXIS2_PLACEMENT_3D ( 'NONE', #74, #332, #198 ) ;
#35 = ORIENTED_EDGE ( 'NONE', *, *, #3, .T. ) ;
#36 = CARTESIAN_POINT ( 'NONE',  ( -15.24999999999999822, -2.999999999999999112, -6000.000000000000000 ) ) ;
#37 = ORIENTED_EDGE ( 'NONE', *, *, #102, .T. ) ;
#38 = DIRECTION ( 'NONE',  ( 1.000000000000000000, -0.0000000000000000000, -0.0000000000000000000 ) ) ;
#39 = ORIENTED_EDGE ( 'NONE', *, *, #31, .F. ) ;
#40 = ORIENTED_EDGE ( 'NONE', *, *, #87, .F. ) ;
#41 = VECTOR ( 'NONE', #322, 1000.000000000000000 ) ;
#42 = PRESENTATION_STYLE_ASSIGNMENT (( #19 ) ) ;
#43 = DIRECTION ( 'NONE',  ( -2.478176394252580648E-16, 1.000000000000000000, -0.0000000000000000000 ) ) ;
#44 = ADVANCED_FACE ( 'NONE', ( #18 ), #171, .T. ) ;
#45 = SHAPE_DEFINITION_REPRESENTATION ( #67, #199 ) ;
#46 = CARTESIAN_POINT ( 'NONE',  ( 15.25000000000000355, -9.999999999999994671, -6000.000000000000000 ) ) ;
#47 = AXIS2_PLACEMENT_3D ( 'NONE', #262, #258, #84 ) ;
#48 = VECTOR ( 'NONE', #214, 1000.000000000000000 ) ;
#49 = CARTESIAN_POINT ( 'NONE',  ( -15.24999999999999645, -10.00000000000000178, -6000.000000000000000 ) ) ;
#50 = CARTESIAN_POINT ( 'NONE',  ( -20.24999999999999645, 0.0000000000000000000, 0.0000000000000000000 ) ) ;
#51 = DIRECTION ( 'NONE',  ( 1.000000000000000000, -0.0000000000000000000, -0.0000000000000000000 ) ) ;
#52 = VECTOR ( 'NONE', #143, 1000.000000000000000 ) ;
#53 = LINE ( 'NONE', #101, #140 ) ;
#54 = ORIENTED_EDGE ( 'NONE', *, *, #279, .T. ) ;
#55 = CARTESIAN_POINT ( 'NONE',  ( 20.25000000000000355, -9.999999999999994671, -6000.000000000000000 ) ) ;
#56 = CARTESIAN_POINT ( 'NONE',  ( 15.25000000000000355, -9.999999999999994671, -6000.000000000000000 ) ) ;
#57 = VECTOR ( 'NONE', #224, 1000.000000000000000 ) ;
#58 = CARTESIAN_POINT ( 'NONE',  ( 0.0000000000000000000, 0.0000000000000000000, 0.0000000000000000000 ) ) ;
#59 = PLANE ( 'NONE',  #75 ) ;
#60 = ORIENTED_EDGE ( 'NONE', *, *, #241, .F. ) ;
#61 = UNCERTAINTY_MEASURE_WITH_UNIT (LENGTH_MEASURE( 1.000000000000000082E-05 ), #30, 'distance_accuracy_value', 'NONE');
#62 = ORIENTED_EDGE ( 'NONE', *, *, #130, .T. ) ;
#63 = VERTEX_POINT ( 'NONE', #123 ) ;
#64 = ORIENTED_EDGE ( 'NONE', *, *, #315, .T. ) ;
#65 = SURFACE_SIDE_STYLE ('',( #133 ) ) ;
#66 = ORIENTED_EDGE ( 'NONE', *, *, #180, .T. ) ;
#67 = PRODUCT_DEFINITION_SHAPE ( 'NONE', 'NONE',  #286 ) ;
#68 = CARTESIAN_POINT ( 'NONE',  ( -15.24999999999999822, -2.999999999999999112, -6000.000000000000000 ) ) ;
#69 = DIRECTION ( 'NONE',  ( 1.000000000000000000, -3.469446951953613696E-16, 0.0000000000000000000 ) ) ;
#70 = DIRECTION ( 'NONE',  ( 0.0000000000000000000, 0.0000000000000000000, 1.000000000000000000 ) ) ;
#71 = STYLED_ITEM ( 'NONE', ( #109 ), #199 ) ;
#72 = CARTESIAN_POINT ( 'NONE',  ( 20.25000000000000355, -9.999999999999994671, -6000.000000000000000 ) ) ;
#73 = DIRECTION ( 'NONE',  ( 1.000000000000000000, 1.421904488505579408E-16, -0.0000000000000000000 ) ) ;
#74 = CARTESIAN_POINT ( 'NONE',  ( -20.24999999999999645, -10.00000000000000000, -6000.000000000000000 ) ) ;
#75 = AXIS2_PLACEMENT_3D ( 'NONE', #159, #12, #268 ) ;
#76 = CLOSED_SHELL ( 'NONE', ( #323, #300, #303, #144, #231, #44, #247, #172, #147, #156 ) ) ;
#77 = LINE ( 'NONE', #80, #99 ) ;
#78 = LINE ( 'NONE', #152, #294 ) ;
#79 = ORIENTED_EDGE ( 'NONE', *, *, #91, .T. ) ;
#80 = CARTESIAN_POINT ( 'NONE',  ( 15.25000000000000355, -9.999999999999994671, 0.0000000000000000000 ) ) ;
#81 = MANIFOLD_SOLID_BREP ( 'Boss-Extrude1', #76 ) ;
#82 = ORIENTED_EDGE ( 'NONE', *, *, #98, .F. ) ;
#83 = EDGE_CURVE ( 'NONE', #160, #259, #194, .T. ) ;
#84 = DIRECTION ( 'NONE',  ( 0.0000000000000000000, 0.0000000000000000000, 1.000000000000000000 ) ) ;
#85 = VERTEX_POINT ( 'NONE', #173 ) ;
#86 = PRODUCT_DEFINITION_CONTEXT ( 'detailed design', #158, 'design' ) ;
#87 = EDGE_CURVE ( 'NONE', #138, #219, #250, .T. ) ;
#88 =( LENGTH_UNIT ( ) NAMED_UNIT ( * ) SI_UNIT ( .MILLI., .METRE. ) );
#89 = VERTEX_POINT ( 'NONE', #221 ) ;
#90 = VECTOR ( 'NONE', #95, 1000.000000000000000 ) ;
#91 = EDGE_CURVE ( 'NONE', #212, #189, #170, .T. ) ;
#92 = VERTEX_POINT ( 'NONE', #277 ) ;
#93 = ORIENTED_EDGE ( 'NONE', *, *, #307, .F. ) ;
#94 = LINE ( 'NONE', #192, #41 ) ;
#95 = DIRECTION ( 'NONE',  ( 0.0000000000000000000, 0.0000000000000000000, 1.000000000000000000 ) ) ;
#96 = FILL_AREA_STYLE ('',( #169 ) ) ;
#97 = CARTESIAN_POINT ( 'NONE',  ( -20.24999999999999645, -10.00000000000000000, 0.0000000000000000000 ) ) ;
#98 = EDGE_CURVE ( 'NONE', #177, #212, #94, .T. ) ;
#99 = VECTOR ( 'NONE', #200, 1000.000000000000000 ) ;
#100 = PLANE ( 'NONE',  #124 ) ;
#101 = CARTESIAN_POINT ( 'NONE',  ( 15.25000000000000355, -9.999999999999994671, -6000.000000000000000 ) ) ;
#102 = EDGE_CURVE ( 'NONE', #25, #165, #301, .T. ) ;
#103 = FACE_OUTER_BOUND ( 'NONE', #11, .T. ) ;
#104 = ORIENTED_EDGE ( 'NONE', *, *, #253, .F. ) ;
#105 = VECTOR ( 'NONE', #70, 1000.000000000000000 ) ;
#106 = COLOUR_RGB ( '',0.0000000000000000000, 1.000000000000000000, 0.0000000000000000000 ) ;
#107 = DIRECTION ( 'NONE',  ( 1.000000000000000000, 2.478176394252580648E-16, -0.0000000000000000000 ) ) ;
#108 = PLANE ( 'NONE',  #325 ) ;
#109 = PRESENTATION_STYLE_ASSIGNMENT (( #6 ) ) ;
#110 = AXIS2_PLACEMENT_3D ( 'NONE', #328, #120, #195 ) ;
#111 = FACE_OUTER_BOUND ( 'NONE', #8, .T. ) ;
#112 = ORIENTED_EDGE ( 'NONE', *, *, #205, .F. ) ;
#113 = FACE_OUTER_BOUND ( 'NONE', #296, .T. ) ;
#114 = CARTESIAN_POINT ( 'NONE',  ( -20.24999999999999645, 0.0000000000000000000, -6000.000000000000000 ) ) ;
#115 = EDGE_CURVE ( 'NONE', #136, #189, #20, .T. ) ;
#116 = FACE_OUTER_BOUND ( 'NONE', #168, .T. ) ;
#117 = ORIENTED_EDGE ( 'NONE', *, *, #205, .T. ) ;
#118 = ORIENTED_EDGE ( 'NONE', *, *, #180, .F. ) ;
#119 = ORIENTED_EDGE ( 'NONE', *, *, #1, .T. ) ;
#120 = DIRECTION ( 'NONE',  ( 0.0000000000000000000, 0.0000000000000000000, 1.000000000000000000 ) ) ;
#121 = LINE ( 'NONE', #142, #311 ) ;
#122 = CARTESIAN_POINT ( 'NONE',  ( 15.25000000000000533, -2.999999999999994671, -6000.000000000000000 ) ) ;
#123 = CARTESIAN_POINT ( 'NONE',  ( -15.24999999999999822, -2.999999999999999112, 0.0000000000000000000 ) ) ;
#124 = AXIS2_PLACEMENT_3D ( 'NONE', #56, #181, #178 ) ;
#125 = PLANE ( 'NONE',  #34 ) ;
#126 = CARTESIAN_POINT ( 'NONE',  ( -20.24999999999999645, 0.0000000000000000000, 0.0000000000000000000 ) ) ;
#127 = LINE ( 'NONE', #206, #316 ) ;
#128 = VECTOR ( 'NONE', #161, 1000.000000000000000 ) ;
#129 = DIRECTION ( 'NONE',  ( 0.0000000000000000000, 0.0000000000000000000, 1.000000000000000000 ) ) ;
#130 = EDGE_CURVE ( 'NONE', #85, #138, #329, .T. ) ;
#131 = ORIENTED_EDGE ( 'NONE', *, *, #115, .F. ) ;
#132 =( GEOMETRIC_REPRESENTATION_CONTEXT ( 3 ) GLOBAL_UNCERTAINTY_ASSIGNED_CONTEXT ( ( #265 ) ) GLOBAL_UNIT_ASSIGNED_CONTEXT ( ( #191, #326, #302 ) ) REPRESENTATION_CONTEXT ( 'NONE', 'WORKASPACE' ) );
#133 = SURFACE_STYLE_FILL_AREA ( #166 ) ;
#134 = LINE ( 'NONE', #114, #48 ) ;
#135 = CARTESIAN_POINT ( 'NONE',  ( 15.25000000000000533, -2.999999999999994671, -6000.000000000000000 ) ) ;
#136 = VERTEX_POINT ( 'NONE', #248 ) ;
#137 = DIRECTION ( 'NONE',  ( -1.000000000000000000, -1.224646799147352961E-16, 0.0000000000000000000 ) ) ;
#138 = VERTEX_POINT ( 'NONE', #97 ) ;
#139 = PRODUCT ( '7B928115-DDEC-4E75-ABEC-D47D9D69578B', '7B928115-DDEC-4E75-ABEC-D47D9D69578B', '', ( #17 ) ) ;
#140 = VECTOR ( 'NONE', #234, 1000.000000000000000 ) ;
#141 = ORIENTED_EDGE ( 'NONE', *, *, #241, .T. ) ;
#142 = CARTESIAN_POINT ( 'NONE',  ( -20.24999999999999645, -10.00000000000000000, -6000.000000000000000 ) ) ;
#143 = DIRECTION ( 'NONE',  ( 0.0000000000000000000, 0.0000000000000000000, 1.000000000000000000 ) ) ;
#144 = ADVANCED_FACE ( 'NONE', ( #197 ), #305, .T. ) ;
#145 = VECTOR ( 'NONE', #43, 1000.000000000000000 ) ;
#146 = DIRECTION ( 'NONE',  ( -0.0000000000000000000, 1.000000000000000000, -0.0000000000000000000 ) ) ;
#147 = ADVANCED_FACE ( 'NONE', ( #103 ), #282, .F. ) ;
#148 = SURFACE_SIDE_STYLE ('',( #271 ) ) ;
#149 = PRODUCT_RELATED_PRODUCT_CATEGORY ( 'part', '', ( #139 ) ) ;
#150 = LINE ( 'NONE', #126, #285 ) ;
#151 = FACE_OUTER_BOUND ( 'NONE', #245, .T. ) ;
#152 = CARTESIAN_POINT ( 'NONE',  ( -15.24999999999999645, -10.00000000000000178, -6000.000000000000000 ) ) ;
#153 = LINE ( 'NONE', #306, #238 ) ;
#154 = ORIENTED_EDGE ( 'NONE', *, *, #14, .T. ) ;
#155 = PRODUCT_DEFINITION_FORMATION_WITH_SPECIFIED_SOURCE ( 'ANY', '', #139, .NOT_KNOWN. ) ;
#156 = ADVANCED_FACE ( 'NONE', ( #23 ), #333, .T. ) ;
#157 = CARTESIAN_POINT ( 'NONE',  ( -20.24999999999999645, 0.0000000000000000000, 0.0000000000000000000 ) ) ;
#158 = APPLICATION_CONTEXT ( 'automotive_design' ) ;
#159 = CARTESIAN_POINT ( 'NONE',  ( 20.25000000000000355, 4.959819536546780600E-15, -6000.000000000000000 ) ) ;
#160 = VERTEX_POINT ( 'NONE', #55 ) ;
#161 = DIRECTION ( 'NONE',  ( 0.0000000000000000000, 0.0000000000000000000, 1.000000000000000000 ) ) ;
#162 = ORIENTED_EDGE ( 'NONE', *, *, #31, .T. ) ;
#163 =( GEOMETRIC_REPRESENTATION_CONTEXT ( 3 ) GLOBAL_UNCERTAINTY_ASSIGNED_CONTEXT ( ( #61 ) ) GLOBAL_UNIT_ASSIGNED_CONTEXT ( ( #30, #209, #295 ) ) REPRESENTATION_CONTEXT ( 'NONE', 'WORKASPACE' ) );
#164 = VECTOR ( 'NONE', #246, 1000.000000000000000 ) ;
#165 = VERTEX_POINT ( 'NONE', #310 ) ;
#166 = FILL_AREA_STYLE ('',( #297 ) ) ;
#167 = ORIENTED_EDGE ( 'NONE', *, *, #327, .F. ) ;
#168 = EDGE_LOOP ( 'NONE', ( #321, #269, #162, #260 ) ) ;
#169 = FILL_AREA_STYLE_COLOUR ( '', #106 ) ;
#170 = LINE ( 'NONE', #324, #90 ) ;
#171 = PLANE ( 'NONE',  #261 ) ;
#172 = ADVANCED_FACE ( 'NONE', ( #28 ), #125, .T. ) ;
#173 = CARTESIAN_POINT ( 'NONE',  ( -20.24999999999999645, -10.00000000000000000, -6000.000000000000000 ) ) ;
#174 = CARTESIAN_POINT ( 'NONE',  ( 20.25000000000000355, 4.959819536546780600E-15, 0.0000000000000000000 ) ) ;
#175 = LINE ( 'NONE', #4, #202 ) ;
#176 = CARTESIAN_POINT ( 'NONE',  ( 0.0000000000000000000, 0.0000000000000000000, -6000.000000000000000 ) ) ;
#177 = VERTEX_POINT ( 'NONE', #29 ) ;
#178 = DIRECTION ( 'NONE',  ( -2.478176394252581141E-16, -1.000000000000000000, 0.0000000000000000000 ) ) ;
#179 = DIRECTION ( 'NONE',  ( 0.0000000000000000000, 0.0000000000000000000, 1.000000000000000000 ) ) ;
#180 = EDGE_CURVE ( 'NONE', #189, #138, #150, .T. ) ;
#181 = DIRECTION ( 'NONE',  ( -1.000000000000000000, 2.478176394252581141E-16, 0.0000000000000000000 ) ) ;
#182 = VECTOR ( 'NONE', #51, 1000.000000000000000 ) ;
#183 = EDGE_LOOP ( 'NONE', ( #66, #267, #218, #13, #190, #318, #35, #263 ) ) ;
#184 = ORIENTED_EDGE ( 'NONE', *, *, #83, .T. ) ;
#185 = LINE ( 'NONE', #287, #274 ) ;
#186 = ORIENTED_EDGE ( 'NONE', *, *, #264, .T. ) ;
#187 = AXIS2_PLACEMENT_3D ( 'NONE', #176, #129, #280 ) ;
#188 = VECTOR ( 'NONE', #146, 1000.000000000000000 ) ;
#189 = VERTEX_POINT ( 'NONE', #157 ) ;
#190 = ORIENTED_EDGE ( 'NONE', *, *, #217, .T. ) ;
#191 =( LENGTH_UNIT ( ) NAMED_UNIT ( * ) SI_UNIT ( .MILLI., .METRE. ) );
#192 = CARTESIAN_POINT ( 'NONE',  ( -20.24999999999999645, 0.0000000000000000000, -6000.000000000000000 ) ) ;
#193 = LINE ( 'NONE', #174, #164 ) ;
#194 = LINE ( 'NONE', #16, #105 ) ;
#195 = DIRECTION ( 'NONE',  ( 1.000000000000000000, 0.0000000000000000000, 0.0000000000000000000 ) ) ;
#196 = VECTOR ( 'NONE', #317, 1000.000000000000000 ) ;
#197 = FACE_OUTER_BOUND ( 'NONE', #215, .T. ) ;
#198 = DIRECTION ( 'NONE',  ( 1.000000000000000000, -3.469446951953613203E-16, 0.0000000000000000000 ) ) ;
#199 = ADVANCED_BREP_SHAPE_REPRESENTATION ( '7B928115-DDEC-4E75-ABEC-D47D9D69578B', ( #81, #110 ), #163 ) ;
#200 = DIRECTION ( 'NONE',  ( -2.478176394252581634E-16, -1.000000000000000000, -0.0000000000000000000 ) ) ;
#201 = DIRECTION ( 'NONE',  ( 1.000000000000000000, 0.0000000000000000000, -0.0000000000000000000 ) ) ;
#202 = VECTOR ( 'NONE', #255, 1000.000000000000000 ) ;
#203 = ORIENTED_EDGE ( 'NONE', *, *, #130, .F. ) ;
#204 =( GEOMETRIC_REPRESENTATION_CONTEXT ( 3 ) GLOBAL_UNCERTAINTY_ASSIGNED_CONTEXT ( ( #220 ) ) GLOBAL_UNIT_ASSIGNED_CONTEXT ( ( #88, #289, #291 ) ) REPRESENTATION_CONTEXT ( 'NONE', 'WORKASPACE' ) );
#205 = EDGE_CURVE ( 'NONE', #10, #92, #53, .T. ) ;
#206 = CARTESIAN_POINT ( 'NONE',  ( 15.25000000000000533, -2.999999999999994671, 0.0000000000000000000 ) ) ;
#207 = ORIENTED_EDGE ( 'NONE', *, *, #264, .F. ) ;
#208 = LINE ( 'NONE', #314, #182 ) ;
#209 =( NAMED_UNIT ( * ) PLANE_ANGLE_UNIT ( ) SI_UNIT ( $, .RADIAN. ) );
#210 = EDGE_CURVE ( 'NONE', #219, #63, #283, .T. ) ;
#211 = PRESENTATION_LAYER_ASSIGNMENT (  '', '', ( #71 ) ) ;
#212 = VERTEX_POINT ( 'NONE', #229 ) ;
#213 = LINE ( 'NONE', #36, #196 ) ;
#214 = DIRECTION ( 'NONE',  ( 0.0000000000000000000, -1.000000000000000000, 0.0000000000000000000 ) ) ;
#215 = EDGE_LOOP ( 'NONE', ( #93, #112, #186, #184 ) ) ;
#216 = PLANE ( 'NONE',  #47 ) ;
#217 = EDGE_CURVE ( 'NONE', #89, #92, #77, .T. ) ;
#218 = ORIENTED_EDGE ( 'NONE', *, *, #210, .T. ) ;
#219 = VERTEX_POINT ( 'NONE', #232 ) ;
#220 = UNCERTAINTY_MEASURE_WITH_UNIT (LENGTH_MEASURE( 1.000000000000000082E-05 ), #88, 'distance_accuracy_value', 'NONE');
#221 = CARTESIAN_POINT ( 'NONE',  ( 15.25000000000000533, -2.999999999999994671, 0.0000000000000000000 ) ) ;
#222 = VECTOR ( 'NONE', #73, 1000.000000000000000 ) ;
#223 = DIRECTION ( 'NONE',  ( 1.000000000000000000, 1.421904488505579408E-16, 0.0000000000000000000 ) ) ;
#224 = DIRECTION ( 'NONE',  ( -1.000000000000000000, -1.224646799147353207E-16, -0.0000000000000000000 ) ) ;
#225 = APPLICATION_CONTEXT ( 'automotive_design' ) ;
#226 = AXIS2_PLACEMENT_3D ( 'NONE', #58, #256, #201 ) ;
#227 = FACE_OUTER_BOUND ( 'NONE', #32, .T. ) ;
#228 = DIRECTION ( 'NONE',  ( 0.0000000000000000000, -1.000000000000000000, 0.0000000000000000000 ) ) ;
#229 = CARTESIAN_POINT ( 'NONE',  ( -20.24999999999999645, 0.0000000000000000000, -6000.000000000000000 ) ) ;
#230 = ORIENTED_EDGE ( 'NONE', *, *, #91, .F. ) ;
#231 = ADVANCED_FACE ( 'NONE', ( #151 ), #100, .T. ) ;
#232 = CARTESIAN_POINT ( 'NONE',  ( -15.24999999999999645, -10.00000000000000178, 0.0000000000000000000 ) ) ;
#233 = PRESENTATION_LAYER_ASSIGNMENT (  '', '', ( #275 ) ) ;
#234 = DIRECTION ( 'NONE',  ( 0.0000000000000000000, 0.0000000000000000000, 1.000000000000000000 ) ) ;
#235 = APPLICATION_PROTOCOL_DEFINITION ( 'draft international standard', 'automotive_design', 1998, #225 ) ;
#236 = EDGE_CURVE ( 'NONE', #25, #219, #78, .T. ) ;
#237 = ORIENTED_EDGE ( 'NONE', *, *, #327, .T. ) ;
#238 = VECTOR ( 'NONE', #331, 1000.000000000000000 ) ;
#239 = ORIENTED_EDGE ( 'NONE', *, *, #236, .F. ) ;
#240 = EDGE_LOOP ( 'NONE', ( #334, #254, #54, #237 ) ) ;
#241 = EDGE_CURVE ( 'NONE', #319, #10, #175, .T. ) ;
#242 = CARTESIAN_POINT ( 'NONE',  ( 15.25000000000000533, -2.999999999999994671, -6000.000000000000000 ) ) ;
#243 = ORIENTED_EDGE ( 'NONE', *, *, #210, .F. ) ;
#244 = AXIS2_PLACEMENT_3D ( 'NONE', #9, #33, #137 ) ;
#245 = EDGE_LOOP ( 'NONE', ( #290, #167, #141, #117 ) ) ;
#246 = DIRECTION ( 'NONE',  ( -0.0000000000000000000, 1.000000000000000000, -0.0000000000000000000 ) ) ;
#247 = ADVANCED_FACE ( 'NONE', ( #227 ), #108, .T. ) ;
#248 = CARTESIAN_POINT ( 'NONE',  ( 20.25000000000000355, 4.959819536546780600E-15, 0.0000000000000000000 ) ) ;
#249 = DIRECTION ( 'NONE',  ( 1.421904488505579408E-16, -1.000000000000000000, 0.0000000000000000000 ) ) ;
#250 = LINE ( 'NONE', #276, #7 ) ;
#251 = DIRECTION ( 'NONE',  ( 0.0000000000000000000, -1.000000000000000000, 0.0000000000000000000 ) ) ;
#252 = DIRECTION ( 'NONE',  ( -2.478176394252580648E-16, 1.000000000000000000, 0.0000000000000000000 ) ) ;
#253 = EDGE_CURVE ( 'NONE', #177, #136, #153, .T. ) ;
#254 = ORIENTED_EDGE ( 'NONE', *, *, #315, .F. ) ;
#255 = DIRECTION ( 'NONE',  ( -2.478176394252581634E-16, -1.000000000000000000, -0.0000000000000000000 ) ) ;
#256 = DIRECTION ( 'NONE',  ( 0.0000000000000000000, 0.0000000000000000000, 1.000000000000000000 ) ) ;
#257 = DIRECTION ( 'NONE',  ( 1.000000000000000000, 1.421904488505579408E-16, -0.0000000000000000000 ) ) ;
#258 = DIRECTION ( 'NONE',  ( -1.000000000000000000, 0.0000000000000000000, 0.0000000000000000000 ) ) ;
#259 = VERTEX_POINT ( 'NONE', #26 ) ;
#260 = ORIENTED_EDGE ( 'NONE', *, *, #253, .T. ) ;
#261 = AXIS2_PLACEMENT_3D ( 'NONE', #122, #249, #223 ) ;
#262 = CARTESIAN_POINT ( 'NONE',  ( -20.24999999999999645, 0.0000000000000000000, -6000.000000000000000 ) ) ;
#263 = ORIENTED_EDGE ( 'NONE', *, *, #115, .T. ) ;
#264 = EDGE_CURVE ( 'NONE', #10, #160, #208, .T. ) ;
#265 = UNCERTAINTY_MEASURE_WITH_UNIT (LENGTH_MEASURE( 1.000000000000000082E-05 ), #191, 'distance_accuracy_value', 'NONE');
#266 = PLANE ( 'NONE',  #244 ) ;
#267 = ORIENTED_EDGE ( 'NONE', *, *, #87, .T. ) ;
#268 = DIRECTION ( 'NONE',  ( -0.0000000000000000000, 0.0000000000000000000, -1.000000000000000000 ) ) ;
#269 = ORIENTED_EDGE ( 'NONE', *, *, #83, .F. ) ;
#270 = AXIS2_PLACEMENT_3D ( 'NONE', #72, #251, #308 ) ;
#271 = SURFACE_STYLE_FILL_AREA ( #96 ) ;
#272 = CARTESIAN_POINT ( 'NONE',  ( -20.24999999999999645, -10.00000000000000000, -6000.000000000000000 ) ) ;
#273 = LINE ( 'NONE', #21, #188 ) ;
#274 = VECTOR ( 'NONE', #38, 1000.000000000000000 ) ;
#275 = STYLED_ITEM ( 'NONE', ( #42 ), #81 ) ;
#276 = CARTESIAN_POINT ( 'NONE',  ( -20.24999999999999645, -10.00000000000000000, 0.0000000000000000000 ) ) ;
#277 = CARTESIAN_POINT ( 'NONE',  ( 15.25000000000000355, -9.999999999999994671, 0.0000000000000000000 ) ) ;
#278 = DIRECTION ( 'NONE',  ( -2.478176394252580648E-16, 1.000000000000000000, -0.0000000000000000000 ) ) ;
#279 = EDGE_CURVE ( 'NONE', #165, #319, #284, .T. ) ;
#280 = DIRECTION ( 'NONE',  ( 1.000000000000000000, 0.0000000000000000000, -0.0000000000000000000 ) ) ;
#281 = MECHANICAL_DESIGN_GEOMETRIC_PRESENTATION_REPRESENTATION (  '', ( #275 ), #132 ) ;
#282 = PLANE ( 'NONE',  #187 ) ;
#283 = LINE ( 'NONE', #312, #330 ) ;
#284 = LINE ( 'NONE', #24, #222 ) ;
#285 = VECTOR ( 'NONE', #228, 1000.000000000000000 ) ;
#286 = PRODUCT_DEFINITION ( 'UNKNOWN', '', #155, #86 ) ;
#287 = CARTESIAN_POINT ( 'NONE',  ( 20.25000000000000355, -9.999999999999994671, 0.0000000000000000000 ) ) ;
#288 = ORIENTED_EDGE ( 'NONE', *, *, #102, .F. ) ;
#289 =( NAMED_UNIT ( * ) PLANE_ANGLE_UNIT ( ) SI_UNIT ( $, .RADIAN. ) );
#290 = ORIENTED_EDGE ( 'NONE', *, *, #217, .F. ) ;
#291 =( NAMED_UNIT ( * ) SI_UNIT ( $, .STERADIAN. ) SOLID_ANGLE_UNIT ( ) );
#292 = EDGE_CURVE ( 'NONE', #63, #89, #127, .T. ) ;
#293 = ORIENTED_EDGE ( 'NONE', *, *, #1, .F. ) ;
#294 = VECTOR ( 'NONE', #179, 1000.000000000000000 ) ;
#295 =( NAMED_UNIT ( * ) SI_UNIT ( $, .STERADIAN. ) SOLID_ANGLE_UNIT ( ) );
#296 = EDGE_LOOP ( 'NONE', ( #131, #104, #309, #79 ) ) ;
#297 = FILL_AREA_STYLE_COLOUR ( '', #22 ) ;
#298 = EDGE_LOOP ( 'NONE', ( #40, #203, #154, #313 ) ) ;
#299 = DIRECTION ( 'NONE',  ( 1.000000000000000000, -3.469446951953613696E-16, 0.0000000000000000000 ) ) ;
#300 = ADVANCED_FACE ( 'NONE', ( #113 ), #266, .T. ) ;
#301 = LINE ( 'NONE', #68, #145 ) ;
#302 =( NAMED_UNIT ( * ) SI_UNIT ( $, .STERADIAN. ) SOLID_ANGLE_UNIT ( ) );
#303 = ADVANCED_FACE ( 'NONE', ( #116 ), #59, .T. ) ;
#304 = APPLICATION_PROTOCOL_DEFINITION ( 'draft international standard', 'automotive_design', 1998, #158 ) ;
#305 = PLANE ( 'NONE',  #270 ) ;
#306 = CARTESIAN_POINT ( 'NONE',  ( 20.25000000000000355, 4.959819536546780600E-15, -6000.000000000000000 ) ) ;
#307 = EDGE_CURVE ( 'NONE', #92, #259, #185, .T. ) ;
#308 = DIRECTION ( 'NONE',  ( 0.0000000000000000000, -0.0000000000000000000, -1.000000000000000000 ) ) ;
#309 = ORIENTED_EDGE ( 'NONE', *, *, #98, .T. ) ;
#310 = CARTESIAN_POINT ( 'NONE',  ( -15.24999999999999822, -2.999999999999999112, -6000.000000000000000 ) ) ;
#311 = VECTOR ( 'NONE', #69, 1000.000000000000000 ) ;
#312 = CARTESIAN_POINT ( 'NONE',  ( -15.24999999999999822, -2.999999999999999112, 0.0000000000000000000 ) ) ;
#313 = ORIENTED_EDGE ( 'NONE', *, *, #236, .T. ) ;
#314 = CARTESIAN_POINT ( 'NONE',  ( 20.25000000000000355, -9.999999999999994671, -6000.000000000000000 ) ) ;
#315 = EDGE_CURVE ( 'NONE', #165, #63, #213, .T. ) ;
#316 = VECTOR ( 'NONE', #257, 1000.000000000000000 ) ;
#317 = DIRECTION ( 'NONE',  ( 0.0000000000000000000, 0.0000000000000000000, 1.000000000000000000 ) ) ;
#318 = ORIENTED_EDGE ( 'NONE', *, *, #307, .T. ) ;
#319 = VERTEX_POINT ( 'NONE', #135 ) ;
#320 = ORIENTED_EDGE ( 'NONE', *, *, #14, .F. ) ;
#321 = ORIENTED_EDGE ( 'NONE', *, *, #3, .F. ) ;
#322 = DIRECTION ( 'NONE',  ( -1.000000000000000000, -1.224646799147353207E-16, -0.0000000000000000000 ) ) ;
#323 = ADVANCED_FACE ( 'NONE', ( #111 ), #216, .T. ) ;
#324 = CARTESIAN_POINT ( 'NONE',  ( -20.24999999999999645, 0.0000000000000000000, -6000.000000000000000 ) ) ;
#325 = AXIS2_PLACEMENT_3D ( 'NONE', #2, #107, #252 ) ;
#326 =( NAMED_UNIT ( * ) PLANE_ANGLE_UNIT ( ) SI_UNIT ( $, .RADIAN. ) );
#327 = EDGE_CURVE ( 'NONE', #319, #89, #5, .T. ) ;
#328 = CARTESIAN_POINT ( 'NONE',  ( 0.0000000000000000000, 0.0000000000000000000, 0.0000000000000000000 ) ) ;
#329 = LINE ( 'NONE', #272, #52 ) ;
#330 = VECTOR ( 'NONE', #278, 1000.000000000000000 ) ;
#331 = DIRECTION ( 'NONE',  ( 0.0000000000000000000, 0.0000000000000000000, 1.000000000000000000 ) ) ;
#332 = DIRECTION ( 'NONE',  ( -3.469446951953613203E-16, -1.000000000000000000, 0.0000000000000000000 ) ) ;
#333 = PLANE ( 'NONE',  #226 ) ;
#334 = ORIENTED_EDGE ( 'NONE', *, *, #292, .F. ) ;
ENDSEC;
END-ISO-10303-21;
