ISO-10303-21;
HEADER;
FILE_DESCRIPTION (( 'STEP AP214' ),
    '1' );
FILE_NAME ('4E4CB3EE-63E4-476A-8A55-7734A5C38B32.STEP',
    '2023-08-02T11:12:23',
    ( '' ),
    ( '' ),
    'SwSTEP 2.0',
    'SolidWorks 2022',
    '' );
FILE_SCHEMA (( 'AUTOMOTIVE_DESIGN' ));
ENDSEC;

DATA;
#1 = DIRECTION ( 'NONE',  ( 1.000000000000000000, 0.0000000000000000000, 0.0000000000000000000 ) ) ;
#2 = EDGE_CURVE ( 'NONE', #40, #307, #243, .T. ) ;
#3 = DIRECTION ( 'NONE',  ( 0.0000000000000000000, -0.0000000000000000000, 1.000000000000000000 ) ) ;
#4 = CIRCLE ( 'NONE', #316, 25.00000000000000000 ) ;
#5 = DIRECTION ( 'NONE',  ( 1.000000000000000000, 0.0000000000000000000, 0.0000000000000000000 ) ) ;
#6 = ORIENTED_EDGE ( 'NONE', *, *, #354, .F. ) ;
#7 = FACE_BOUND ( 'NONE', #83, .T. ) ;
#8 = ORIENTED_EDGE ( 'NONE', *, *, #48, .T. ) ;
#9 = CARTESIAN_POINT ( 'NONE',  ( 0.0000000000000000000, 0.0000000000000000000, -39.49999999999999289 ) ) ;
#10 = FACE_OUTER_BOUND ( 'NONE', #306, .T. ) ;
#11 = LINE ( 'NONE', #208, #333 ) ;
#12 = ADVANCED_FACE ( 'NONE', ( #91 ), #374, .T. ) ;
#13 = VERTEX_POINT ( 'NONE', #27 ) ;
#14 = CIRCLE ( 'NONE', #338, 14.24999999999999822 ) ;
#15 = PRESENTATION_LAYER_ASSIGNMENT (  '', '', ( #258 ) ) ;
#16 = VERTEX_POINT ( 'NONE', #92 ) ;
#17 = ORIENTED_EDGE ( 'NONE', *, *, #48, .F. ) ;
#18 = EDGE_CURVE ( 'NONE', #97, #128, #118, .T. ) ;
#19 = VERTEX_POINT ( 'NONE', #150 ) ;
#20 = DIRECTION ( 'NONE',  ( -0.0000000000000000000, -0.0000000000000000000, 1.000000000000000000 ) ) ;
#21 = EDGE_LOOP ( 'NONE', ( #140, #164 ) ) ;
#22 = CIRCLE ( 'NONE', #93, 9.249999999999989342 ) ;
#23 = PRODUCT_CONTEXT ( 'NONE', #121, 'mechanical' ) ;
#24 = CARTESIAN_POINT ( 'NONE',  ( 0.0000000000000000000, 0.0000000000000000000, -39.50000000000002132 ) ) ;
#25 = EDGE_CURVE ( 'NONE', #19, #128, #47, .T. ) ;
#26 = FACE_OUTER_BOUND ( 'NONE', #264, .T. ) ;
#27 = CARTESIAN_POINT ( 'NONE',  ( -25.00000000000000000, 3.061616997868383043E-15, -39.49999999999999289 ) ) ;
#28 = AXIS2_PLACEMENT_3D ( 'NONE', #170, #77, #192 ) ;
#29 = DIRECTION ( 'NONE',  ( 1.000000000000000000, 0.0000000000000000000, 0.0000000000000000000 ) ) ;
#30 = EDGE_CURVE ( 'NONE', #266, #97, #200, .T. ) ;
#31 = CARTESIAN_POINT ( 'NONE',  ( 0.0000000000000000000, 0.0000000000000000000, 42.24999999999999289 ) ) ;
#32 = PRODUCT_DEFINITION_CONTEXT ( 'detailed design', #211, 'design' ) ;
#33 = DIRECTION ( 'NONE',  ( 1.000000000000000000, 0.0000000000000000000, 0.0000000000000000000 ) ) ;
#34 = CARTESIAN_POINT ( 'NONE',  ( 0.0000000000000000000, 0.0000000000000000000, 40.49999999999999289 ) ) ;
#35 = DIRECTION ( 'NONE',  ( 1.000000000000000000, 0.0000000000000000000, 0.0000000000000000000 ) ) ;
#36 = DIRECTION ( 'NONE',  ( 0.0000000000000000000, 0.0000000000000000000, -1.000000000000000000 ) ) ;
#37 = CIRCLE ( 'NONE', #120, 32.50000000000000711 ) ;
#38 = AXIS2_PLACEMENT_3D ( 'NONE', #87, #318, #348 ) ;
#39 = CARTESIAN_POINT ( 'NONE',  ( 0.0000000000000000000, 0.0000000000000000000, 98.43369195224448731 ) ) ;
#40 = VERTEX_POINT ( 'NONE', #323 ) ;
#41 = EDGE_CURVE ( 'NONE', #254, #40, #58, .T. ) ;
#42 = APPLICATION_PROTOCOL_DEFINITION ( 'draft international standard', 'automotive_design', 1998, #121 ) ;
#43 = ORIENTED_EDGE ( 'NONE', *, *, #25, .T. ) ;
#44 = SURFACE_STYLE_FILL_AREA ( #163 ) ;
#45 = EDGE_LOOP ( 'NONE', ( #115, #101, #360, #43 ) ) ;
#46 = LINE ( 'NONE', #51, #106 ) ;
#47 = CIRCLE ( 'NONE', #99, 9.249999999999989342 ) ;
#48 = EDGE_CURVE ( 'NONE', #165, #314, #88, .T. ) ;
#49 =( GEOMETRIC_REPRESENTATION_CONTEXT ( 3 ) GLOBAL_UNCERTAINTY_ASSIGNED_CONTEXT ( ( #179 ) ) GLOBAL_UNIT_ASSIGNED_CONTEXT ( ( #368, #255, #342 ) ) REPRESENTATION_CONTEXT ( 'NONE', 'WORKASPACE' ) );
#50 = EDGE_LOOP ( 'NONE', ( #199, #136, #167, #6 ) ) ;
#51 = CARTESIAN_POINT ( 'NONE',  ( 25.00000000000000000, 0.0000000000000000000, 98.43369195224448731 ) ) ;
#52 = ORIENTED_EDGE ( 'NONE', *, *, #359, .F. ) ;
#53 = EDGE_LOOP ( 'NONE', ( #363, #334 ) ) ;
#54 = CARTESIAN_POINT ( 'NONE',  ( 0.0000000000000000000, 0.0000000000000000000, -39.50000000000002132 ) ) ;
#55 = ADVANCED_FACE ( 'NONE', ( #287 ), #229, .T. ) ;
#56 = DIRECTION ( 'NONE',  ( 0.0000000000000000000, 0.0000000000000000000, 1.000000000000000000 ) ) ;
#57 = CARTESIAN_POINT ( 'NONE',  ( 9.249999999999994671, 0.0000000000000000000, 98.43369195224448731 ) ) ;
#58 = LINE ( 'NONE', #257, #322 ) ;
#59 = LINE ( 'NONE', #57, #232 ) ;
#60 = ADVANCED_FACE ( 'NONE', ( #26, #176 ), #173, .F. ) ;
#61 = COLOUR_RGB ( '',0.2509803921568627416, 0.2509803921568627416, 0.2509803921568627416 ) ;
#62 = DIRECTION ( 'NONE',  ( -0.0000000000000000000, -0.0000000000000000000, 1.000000000000000000 ) ) ;
#63 = FACE_OUTER_BOUND ( 'NONE', #53, .T. ) ;
#64 = DIRECTION ( 'NONE',  ( -0.0000000000000000000, -0.0000000000000000000, 1.000000000000000000 ) ) ;
#65 = AXIS2_PLACEMENT_3D ( 'NONE', #185, #326, #158 ) ;
#66 = EDGE_CURVE ( 'NONE', #314, #165, #295, .T. ) ;
#67 = DIRECTION ( 'NONE',  ( -0.0000000000000000000, -0.0000000000000000000, 1.000000000000000000 ) ) ;
#68 = ORIENTED_EDGE ( 'NONE', *, *, #66, .F. ) ;
#69 = CARTESIAN_POINT ( 'NONE',  ( 32.50000000000000000, 0.0000000000000000000, 42.24999999999999289 ) ) ;
#70 = EDGE_LOOP ( 'NONE', ( #52, #310, #197, #366 ) ) ;
#71 = CARTESIAN_POINT ( 'NONE',  ( 0.0000000000000000000, 9.249999999999989342, 42.24999999999999289 ) ) ;
#72 = EDGE_CURVE ( 'NONE', #336, #312, #137, .T. ) ;
#73 = AXIS2_PLACEMENT_3D ( 'NONE', #234, #162, #33 ) ;
#74 = DIRECTION ( 'NONE',  ( -0.0000000000000000000, -0.0000000000000000000, 1.000000000000000000 ) ) ;
#75 = ORIENTED_EDGE ( 'NONE', *, *, #180, .T. ) ;
#76 = DIRECTION ( 'NONE',  ( -0.0000000000000000000, -0.0000000000000000000, 1.000000000000000000 ) ) ;
#77 = DIRECTION ( 'NONE',  ( -0.0000000000000000000, -0.0000000000000000000, 1.000000000000000000 ) ) ;
#78 = CARTESIAN_POINT ( 'NONE',  ( -25.00000000000000000, 3.061616997868383043E-15, 40.49999999999999289 ) ) ;
#79 = VERTEX_POINT ( 'NONE', #233 ) ;
#80 =( LENGTH_UNIT ( ) NAMED_UNIT ( * ) SI_UNIT ( .MILLI., .METRE. ) );
#81 = VECTOR ( 'NONE', #205, 1000.000000000000000 ) ;
#82 = UNCERTAINTY_MEASURE_WITH_UNIT (LENGTH_MEASURE( 1.000000000000000082E-05 ), #282, 'distance_accuracy_value', 'NONE');
#83 = EDGE_LOOP ( 'NONE', ( #281, #75 ) ) ;
#84 = ORIENTED_EDGE ( 'NONE', *, *, #184, .T. ) ;
#85 = EDGE_LOOP ( 'NONE', ( #353, #8 ) ) ;
#86 = ADVANCED_FACE ( 'NONE', ( #256, #370 ), #259, .F. ) ;
#87 = CARTESIAN_POINT ( 'NONE',  ( 0.0000000000000000000, 14.24999999999999822, -42.25000000000000711 ) ) ;
#88 = CIRCLE ( 'NONE', #238, 14.24999999999999822 ) ;
#89 = FACE_OUTER_BOUND ( 'NONE', #70, .T. ) ;
#90 = EDGE_CURVE ( 'NONE', #266, #19, #59, .T. ) ;
#91 = FACE_OUTER_BOUND ( 'NONE', #130, .T. ) ;
#92 = CARTESIAN_POINT ( 'NONE',  ( 25.00000000000000000, 0.0000000000000000000, -39.49999999999999289 ) ) ;
#93 = AXIS2_PLACEMENT_3D ( 'NONE', #159, #239, #103 ) ;
#94 = VECTOR ( 'NONE', #74, 1000.000000000000000 ) ;
#95 = DIRECTION ( 'NONE',  ( -0.0000000000000000000, -0.0000000000000000000, 1.000000000000000000 ) ) ;
#96 = FACE_OUTER_BOUND ( 'NONE', #50, .T. ) ;
#97 = VERTEX_POINT ( 'NONE', #177 ) ;
#98 = DIRECTION ( 'NONE',  ( 1.000000000000000000, 0.0000000000000000000, 0.0000000000000000000 ) ) ;
#99 = AXIS2_PLACEMENT_3D ( 'NONE', #31, #95, #147 ) ;
#100 = DIRECTION ( 'NONE',  ( 1.000000000000000000, 0.0000000000000000000, 0.0000000000000000000 ) ) ;
#101 = ORIENTED_EDGE ( 'NONE', *, *, #30, .F. ) ;
#102 = EDGE_CURVE ( 'NONE', #97, #266, #132, .T. ) ;
#103 = DIRECTION ( 'NONE',  ( 1.000000000000000000, 0.0000000000000000000, 0.0000000000000000000 ) ) ;
#104 = FILL_AREA_STYLE_COLOUR ( '', #284 ) ;
#105 = AXIS2_PLACEMENT_3D ( 'NONE', #71, #36, #299 ) ;
#106 = VECTOR ( 'NONE', #20, 1000.000000000000000 ) ;
#107 =( NAMED_UNIT ( * ) SI_UNIT ( $, .STERADIAN. ) SOLID_ANGLE_UNIT ( ) );
#108 = ORIENTED_EDGE ( 'NONE', *, *, #196, .T. ) ;
#109 = DIRECTION ( 'NONE',  ( -0.0000000000000000000, -0.0000000000000000000, 1.000000000000000000 ) ) ;
#110 = ORIENTED_EDGE ( 'NONE', *, *, #41, .T. ) ;
#111 = DIRECTION ( 'NONE',  ( -0.0000000000000000000, -0.0000000000000000000, 1.000000000000000000 ) ) ;
#112 = ORIENTED_EDGE ( 'NONE', *, *, #30, .T. ) ;
#113 = SURFACE_STYLE_USAGE ( .BOTH. , #248 ) ;
#114 = CIRCLE ( 'NONE', #277, 25.00000000000000000 ) ;
#115 = ORIENTED_EDGE ( 'NONE', *, *, #18, .F. ) ;
#116 = EDGE_CURVE ( 'NONE', #312, #336, #14, .T. ) ;
#117 = ORIENTED_EDGE ( 'NONE', *, *, #236, .T. ) ;
#118 = LINE ( 'NONE', #349, #81 ) ;
#119 = CARTESIAN_POINT ( 'NONE',  ( 0.0000000000000000000, 0.0000000000000000000, -42.25000000000002132 ) ) ;
#120 = AXIS2_PLACEMENT_3D ( 'NONE', #134, #241, #302 ) ;
#121 = APPLICATION_CONTEXT ( 'automotive_design' ) ;
#122 = CYLINDRICAL_SURFACE ( 'NONE', #303, 25.00000000000000000 ) ;
#123 = DIRECTION ( 'NONE',  ( -0.0000000000000000000, -0.0000000000000000000, 1.000000000000000000 ) ) ;
#124 = DIRECTION ( 'NONE',  ( -0.0000000000000000000, -0.0000000000000000000, 1.000000000000000000 ) ) ;
#125 =( GEOMETRIC_REPRESENTATION_CONTEXT ( 3 ) GLOBAL_UNCERTAINTY_ASSIGNED_CONTEXT ( ( #82 ) ) GLOBAL_UNIT_ASSIGNED_CONTEXT ( ( #282, #313, #365 ) ) REPRESENTATION_CONTEXT ( 'NONE', 'WORKASPACE' ) );
#126 = CYLINDRICAL_SURFACE ( 'NONE', #183, 14.24999999999999822 ) ;
#127 = ADVANCED_FACE ( 'NONE', ( #89 ), #122, .T. ) ;
#128 = VERTEX_POINT ( 'NONE', #231 ) ;
#129 = PLANE ( 'NONE',  #152 ) ;
#130 = EDGE_LOOP ( 'NONE', ( #194, #108, #279, #224 ) ) ;
#131 = CARTESIAN_POINT ( 'NONE',  ( 0.0000000000000000000, 32.50000000000000711, 40.49999999999999289 ) ) ;
#132 = CIRCLE ( 'NONE', #188, 9.250000000000000000 ) ;
#133 = ADVANCED_FACE ( 'NONE', ( #10 ), #126, .T. ) ;
#134 = CARTESIAN_POINT ( 'NONE',  ( 0.0000000000000000000, 0.0000000000000000000, 40.49999999999999289 ) ) ;
#135 = DIRECTION ( 'NONE',  ( 1.000000000000000000, 0.0000000000000000000, 0.0000000000000000000 ) ) ;
#136 = ORIENTED_EDGE ( 'NONE', *, *, #359, .T. ) ;
#137 = CIRCLE ( 'NONE', #195, 14.24999999999999822 ) ;
#138 = MECHANICAL_DESIGN_GEOMETRIC_PRESENTATION_REPRESENTATION (  '', ( #258 ), #49 ) ;
#139 = DIRECTION ( 'NONE',  ( 1.000000000000000000, 0.0000000000000000000, 0.0000000000000000000 ) ) ;
#140 = ORIENTED_EDGE ( 'NONE', *, *, #72, .F. ) ;
#141 = SURFACE_STYLE_FILL_AREA ( #191 ) ;
#142 = ORIENTED_EDGE ( 'NONE', *, *, #18, .T. ) ;
#143 = FACE_OUTER_BOUND ( 'NONE', #45, .T. ) ;
#144 = ORIENTED_EDGE ( 'NONE', *, *, #328, .T. ) ;
#145 = STYLED_ITEM ( 'NONE', ( #169 ), #341 ) ;
#146 = ORIENTED_EDGE ( 'NONE', *, *, #155, .F. ) ;
#147 = DIRECTION ( 'NONE',  ( 1.000000000000000000, 0.0000000000000000000, 0.0000000000000000000 ) ) ;
#148 = DIRECTION ( 'NONE',  ( 1.000000000000000000, 0.0000000000000000000, 0.0000000000000000000 ) ) ;
#149 = CARTESIAN_POINT ( 'NONE',  ( 0.0000000000000000000, 0.0000000000000000000, -42.25000000000002132 ) ) ;
#150 = CARTESIAN_POINT ( 'NONE',  ( 9.249999999999989342, 0.0000000000000000000, 42.24999999999999289 ) ) ;
#151 = AXIS2_PLACEMENT_3D ( 'NONE', #289, #315, #154 ) ;
#152 = AXIS2_PLACEMENT_3D ( 'NONE', #131, #324, #237 ) ;
#153 = DIRECTION ( 'NONE',  ( 1.000000000000000000, 0.0000000000000000000, 0.0000000000000000000 ) ) ;
#154 = DIRECTION ( 'NONE',  ( 1.000000000000000000, 0.0000000000000000000, 0.0000000000000000000 ) ) ;
#155 = EDGE_CURVE ( 'NONE', #307, #40, #223, .T. ) ;
#156 = FACE_BOUND ( 'NONE', #369, .T. ) ;
#157 = AXIS2_PLACEMENT_3D ( 'NONE', #321, #293, #204 ) ;
#158 = DIRECTION ( 'NONE',  ( 1.000000000000000000, 0.0000000000000000000, 0.0000000000000000000 ) ) ;
#159 = CARTESIAN_POINT ( 'NONE',  ( 0.0000000000000000000, 0.0000000000000000000, 42.24999999999999289 ) ) ;
#160 = CARTESIAN_POINT ( 'NONE',  ( -32.50000000000000711, 3.980102097228899415E-15, 40.49999999999999289 ) ) ;
#161 = AXIS2_PLACEMENT_3D ( 'NONE', #226, #3, #178 ) ;
#162 = DIRECTION ( 'NONE',  ( -0.0000000000000000000, -0.0000000000000000000, 1.000000000000000000 ) ) ;
#163 = FILL_AREA_STYLE ('',( #253 ) ) ;
#164 = ORIENTED_EDGE ( 'NONE', *, *, #116, .F. ) ;
#165 = VERTEX_POINT ( 'NONE', #187 ) ;
#166 = CARTESIAN_POINT ( 'NONE',  ( 0.0000000000000000000, 0.0000000000000000000, -39.49999999999999289 ) ) ;
#167 = ORIENTED_EDGE ( 'NONE', *, *, #190, .F. ) ;
#168 = ORIENTED_EDGE ( 'NONE', *, *, #90, .F. ) ;
#169 = PRESENTATION_STYLE_ASSIGNMENT (( #113 ) ) ;
#170 = CARTESIAN_POINT ( 'NONE',  ( 0.0000000000000000000, 0.0000000000000000000, 42.24999999999999289 ) ) ;
#171 = AXIS2_PLACEMENT_3D ( 'NONE', #271, #214, #35 ) ;
#172 = CARTESIAN_POINT ( 'NONE',  ( 0.0000000000000000000, 0.0000000000000000000, 0.0000000000000000000 ) ) ;
#173 = PLANE ( 'NONE',  #161 ) ;
#174 = SHAPE_DEFINITION_REPRESENTATION ( #332, #330 ) ;
#175 = DIRECTION ( 'NONE',  ( -0.0000000000000000000, -0.0000000000000000000, 1.000000000000000000 ) ) ;
#176 = FACE_BOUND ( 'NONE', #85, .T. ) ;
#177 = CARTESIAN_POINT ( 'NONE',  ( -9.250000000000001776, 1.132798289211301698E-15, -42.25000000000002132 ) ) ;
#178 = DIRECTION ( 'NONE',  ( 1.000000000000000000, 0.0000000000000000000, 0.0000000000000000000 ) ) ;
#179 = UNCERTAINTY_MEASURE_WITH_UNIT (LENGTH_MEASURE( 1.000000000000000082E-05 ), #368, 'distance_accuracy_value', 'NONE');
#180 = EDGE_CURVE ( 'NONE', #343, #213, #114, .T. ) ;
#181 = CARTESIAN_POINT ( 'NONE',  ( 0.0000000000000000000, 0.0000000000000000000, 42.24999999999999289 ) ) ;
#182 = DIRECTION ( 'NONE',  ( -0.0000000000000000000, -0.0000000000000000000, 1.000000000000000000 ) ) ;
#183 = AXIS2_PLACEMENT_3D ( 'NONE', #39, #294, #98 ) ;
#184 = EDGE_CURVE ( 'NONE', #336, #314, #210, .T. ) ;
#185 = CARTESIAN_POINT ( 'NONE',  ( 0.0000000000000000000, 0.0000000000000000000, 40.49999999999999289 ) ) ;
#186 = FACE_OUTER_BOUND ( 'NONE', #219, .T. ) ;
#187 = CARTESIAN_POINT ( 'NONE',  ( -14.24999999999999822, 1.745121688784978228E-15, -39.50000000000002132 ) ) ;
#188 = AXIS2_PLACEMENT_3D ( 'NONE', #149, #288, #153 ) ;
#189 = AXIS2_PLACEMENT_3D ( 'NONE', #193, #339, #362 ) ;
#190 = EDGE_CURVE ( 'NONE', #213, #343, #206, .T. ) ;
#191 = FILL_AREA_STYLE ('',( #104 ) ) ;
#192 = DIRECTION ( 'NONE',  ( 1.000000000000000000, 0.0000000000000000000, 0.0000000000000000000 ) ) ;
#193 = CARTESIAN_POINT ( 'NONE',  ( 0.0000000000000000000, 0.0000000000000000000, 98.43369195224448731 ) ) ;
#194 = ORIENTED_EDGE ( 'NONE', *, *, #41, .F. ) ;
#195 = AXIS2_PLACEMENT_3D ( 'NONE', #320, #371, #230 ) ;
#196 = EDGE_CURVE ( 'NONE', #254, #79, #37, .T. ) ;
#197 = ORIENTED_EDGE ( 'NONE', *, *, #354, .T. ) ;
#198 = ORIENTED_EDGE ( 'NONE', *, *, #290, .F. ) ;
#199 = ORIENTED_EDGE ( 'NONE', *, *, #372, .T. ) ;
#200 = CIRCLE ( 'NONE', #151, 9.250000000000000000 ) ;
#201 =( GEOMETRIC_REPRESENTATION_CONTEXT ( 3 ) GLOBAL_UNCERTAINTY_ASSIGNED_CONTEXT ( ( #215 ) ) GLOBAL_UNIT_ASSIGNED_CONTEXT ( ( #80, #311, #107 ) ) REPRESENTATION_CONTEXT ( 'NONE', 'WORKASPACE' ) );
#202 = DIRECTION ( 'NONE',  ( -0.0000000000000000000, -0.0000000000000000000, 1.000000000000000000 ) ) ;
#203 = DIRECTION ( 'NONE',  ( -0.0000000000000000000, -0.0000000000000000000, 1.000000000000000000 ) ) ;
#204 = DIRECTION ( 'NONE',  ( 1.000000000000000000, 0.0000000000000000000, 0.0000000000000000000 ) ) ;
#205 = DIRECTION ( 'NONE',  ( -0.0000000000000000000, -0.0000000000000000000, 1.000000000000000000 ) ) ;
#206 = CIRCLE ( 'NONE', #65, 25.00000000000000000 ) ;
#207 = ADVANCED_FACE ( 'NONE', ( #96 ), #329, .T. ) ;
#208 = CARTESIAN_POINT ( 'NONE',  ( 32.50000000000000000, 0.0000000000000000000, 98.43369195224448731 ) ) ;
#209 = CYLINDRICAL_SURFACE ( 'NONE', #171, 9.249999999999994671 ) ;
#210 = LINE ( 'NONE', #352, #227 ) ;
#211 = APPLICATION_CONTEXT ( 'automotive_design' ) ;
#212 = CARTESIAN_POINT ( 'NONE',  ( 14.24999999999999822, 0.0000000000000000000, -39.50000000000002132 ) ) ;
#213 = VERTEX_POINT ( 'NONE', #267 ) ;
#214 = DIRECTION ( 'NONE',  ( -0.0000000000000000000, -0.0000000000000000000, 1.000000000000000000 ) ) ;
#215 = UNCERTAINTY_MEASURE_WITH_UNIT (LENGTH_MEASURE( 1.000000000000000082E-05 ), #80, 'distance_accuracy_value', 'NONE');
#216 = ORIENTED_EDGE ( 'NONE', *, *, #240, .F. ) ;
#217 = ORIENTED_EDGE ( 'NONE', *, *, #236, .F. ) ;
#218 = CARTESIAN_POINT ( 'NONE',  ( 14.24999999999999822, 0.0000000000000000000, -42.25000000000002132 ) ) ;
#219 = EDGE_LOOP ( 'NONE', ( #144, #110, #146, #249 ) ) ;
#220 = PRODUCT ( '4E4CB3EE-63E4-476A-8A55-7734A5C38B32', '4E4CB3EE-63E4-476A-8A55-7734A5C38B32', '', ( #23 ) ) ;
#221 = LINE ( 'NONE', #280, #94 ) ;
#222 = ORIENTED_EDGE ( 'NONE', *, *, #116, .T. ) ;
#223 = CIRCLE ( 'NONE', #367, 32.50000000000000000 ) ;
#224 = ORIENTED_EDGE ( 'NONE', *, *, #2, .F. ) ;
#225 = EDGE_LOOP ( 'NONE', ( #298, #142, #361, #168 ) ) ;
#226 = CARTESIAN_POINT ( 'NONE',  ( 0.0000000000000000000, 25.00000000000000000, -39.50000000000000711 ) ) ;
#227 = VECTOR ( 'NONE', #300, 1000.000000000000000 ) ;
#228 = PRODUCT_DEFINITION_FORMATION_WITH_SPECIFIED_SOURCE ( 'ANY', '', #220, .NOT_KNOWN. ) ;
#229 = CYLINDRICAL_SURFACE ( 'NONE', #269, 14.24999999999999822 ) ;
#230 = DIRECTION ( 'NONE',  ( 1.000000000000000000, 0.0000000000000000000, 0.0000000000000000000 ) ) ;
#231 = CARTESIAN_POINT ( 'NONE',  ( -9.249999999999989342, 1.132798289211300712E-15, 42.24999999999999289 ) ) ;
#232 = VECTOR ( 'NONE', #175, 1000.000000000000000 ) ;
#233 = CARTESIAN_POINT ( 'NONE',  ( 32.50000000000000711, 0.0000000000000000000, 40.49999999999999289 ) ) ;
#234 = CARTESIAN_POINT ( 'NONE',  ( 0.0000000000000000000, 0.0000000000000000000, 98.43369195224448731 ) ) ;
#235 = DIRECTION ( 'NONE',  ( -0.0000000000000000000, -0.0000000000000000000, 1.000000000000000000 ) ) ;
#236 = EDGE_CURVE ( 'NONE', #312, #165, #356, .T. ) ;
#237 = DIRECTION ( 'NONE',  ( 1.000000000000000000, 0.0000000000000000000, 0.0000000000000000000 ) ) ;
#238 = AXIS2_PLACEMENT_3D ( 'NONE', #54, #62, #292 ) ;
#239 = DIRECTION ( 'NONE',  ( -0.0000000000000000000, -0.0000000000000000000, 1.000000000000000000 ) ) ;
#240 = EDGE_CURVE ( 'NONE', #128, #19, #22, .T. ) ;
#241 = DIRECTION ( 'NONE',  ( -0.0000000000000000000, -0.0000000000000000000, 1.000000000000000000 ) ) ;
#242 = EDGE_LOOP ( 'NONE', ( #283, #117, #68, #272 ) ) ;
#243 = CIRCLE ( 'NONE', #28, 32.50000000000000000 ) ;
#244 = EDGE_LOOP ( 'NONE', ( #335, #247 ) ) ;
#245 = ADVANCED_FACE ( 'NONE', ( #156, #63 ), #263, .F. ) ;
#246 = CYLINDRICAL_SURFACE ( 'NONE', #189, 9.249999999999994671 ) ;
#247 = ORIENTED_EDGE ( 'NONE', *, *, #196, .F. ) ;
#248 = SURFACE_SIDE_STYLE ('',( #141 ) ) ;
#249 = ORIENTED_EDGE ( 'NONE', *, *, #285, .F. ) ;
#250 = VECTOR ( 'NONE', #67, 1000.000000000000000 ) ;
#251 = CIRCLE ( 'NONE', #304, 25.00000000000000000 ) ;
#252 = MECHANICAL_DESIGN_GEOMETRIC_PRESENTATION_REPRESENTATION (  '', ( #145 ), #125 ) ;
#253 = FILL_AREA_STYLE_COLOUR ( '', #61 ) ;
#254 = VERTEX_POINT ( 'NONE', #160 ) ;
#255 =( NAMED_UNIT ( * ) PLANE_ANGLE_UNIT ( ) SI_UNIT ( $, .RADIAN. ) );
#256 = FACE_OUTER_BOUND ( 'NONE', #21, .T. ) ;
#257 = CARTESIAN_POINT ( 'NONE',  ( -32.50000000000000000, 3.980102097228898626E-15, 98.43369195224448731 ) ) ;
#258 = STYLED_ITEM ( 'NONE', ( #273 ), #330 ) ;
#259 = PLANE ( 'NONE',  #38 ) ;
#260 = ADVANCED_FACE ( 'NONE', ( #296 ), #209, .F. ) ;
#261 = DIRECTION ( 'NONE',  ( -0.0000000000000000000, -0.0000000000000000000, 1.000000000000000000 ) ) ;
#262 = DIRECTION ( 'NONE',  ( 1.000000000000000000, 0.0000000000000000000, 0.0000000000000000000 ) ) ;
#263 = PLANE ( 'NONE',  #105 ) ;
#264 = EDGE_LOOP ( 'NONE', ( #274, #198 ) ) ;
#265 = FACE_OUTER_BOUND ( 'NONE', #244, .T. ) ;
#266 = VERTEX_POINT ( 'NONE', #325 ) ;
#267 = CARTESIAN_POINT ( 'NONE',  ( 25.00000000000000000, 0.0000000000000000000, 40.49999999999999289 ) ) ;
#268 = CYLINDRICAL_SURFACE ( 'NONE', #317, 32.50000000000000000 ) ;
#269 = AXIS2_PLACEMENT_3D ( 'NONE', #344, #202, #262 ) ;
#270 = AXIS2_PLACEMENT_3D ( 'NONE', #309, #109, #358 ) ;
#271 = CARTESIAN_POINT ( 'NONE',  ( 0.0000000000000000000, 0.0000000000000000000, 98.43369195224448731 ) ) ;
#272 = ORIENTED_EDGE ( 'NONE', *, *, #184, .F. ) ;
#273 = PRESENTATION_STYLE_ASSIGNMENT (( #305 ) ) ;
#274 = ORIENTED_EDGE ( 'NONE', *, *, #372, .F. ) ;
#275 = SURFACE_SIDE_STYLE ('',( #44 ) ) ;
#276 = EDGE_LOOP ( 'NONE', ( #112, #340 ) ) ;
#277 = AXIS2_PLACEMENT_3D ( 'NONE', #34, #235, #100 ) ;
#278 = DIRECTION ( 'NONE',  ( 1.000000000000000000, 0.0000000000000000000, 0.0000000000000000000 ) ) ;
#279 = ORIENTED_EDGE ( 'NONE', *, *, #285, .T. ) ;
#280 = CARTESIAN_POINT ( 'NONE',  ( -25.00000000000000000, 3.061616997868383043E-15, 98.43369195224448731 ) ) ;
#281 = ORIENTED_EDGE ( 'NONE', *, *, #190, .T. ) ;
#282 =( LENGTH_UNIT ( ) NAMED_UNIT ( * ) SI_UNIT ( .MILLI., .METRE. ) );
#283 = ORIENTED_EDGE ( 'NONE', *, *, #72, .T. ) ;
#284 = COLOUR_RGB ( '',0.2509803921568627416, 0.2509803921568627416, 0.2509803921568627416 ) ;
#285 = EDGE_CURVE ( 'NONE', #79, #307, #11, .T. ) ;
#286 = APPLICATION_PROTOCOL_DEFINITION ( 'draft international standard', 'automotive_design', 1998, #211 ) ;
#287 = FACE_OUTER_BOUND ( 'NONE', #242, .T. ) ;
#288 = DIRECTION ( 'NONE',  ( -0.0000000000000000000, -0.0000000000000000000, 1.000000000000000000 ) ) ;
#289 = CARTESIAN_POINT ( 'NONE',  ( 0.0000000000000000000, 0.0000000000000000000, -42.25000000000002132 ) ) ;
#290 = EDGE_CURVE ( 'NONE', #13, #16, #4, .T. ) ;
#291 = AXIS2_PLACEMENT_3D ( 'NONE', #24, #124, #29 ) ;
#292 = DIRECTION ( 'NONE',  ( 1.000000000000000000, 0.0000000000000000000, 0.0000000000000000000 ) ) ;
#293 = DIRECTION ( 'NONE',  ( -0.0000000000000000000, -0.0000000000000000000, 1.000000000000000000 ) ) ;
#294 = DIRECTION ( 'NONE',  ( -0.0000000000000000000, -0.0000000000000000000, 1.000000000000000000 ) ) ;
#295 = CIRCLE ( 'NONE', #291, 14.24999999999999822 ) ;
#296 = FACE_OUTER_BOUND ( 'NONE', #225, .T. ) ;
#297 = CIRCLE ( 'NONE', #270, 32.50000000000000711 ) ;
#298 = ORIENTED_EDGE ( 'NONE', *, *, #102, .F. ) ;
#299 = DIRECTION ( 'NONE',  ( -1.000000000000000000, 0.0000000000000000000, -0.0000000000000000000 ) ) ;
#300 = DIRECTION ( 'NONE',  ( -0.0000000000000000000, -0.0000000000000000000, 1.000000000000000000 ) ) ;
#301 = PRODUCT_RELATED_PRODUCT_CATEGORY ( 'part', '', ( #220 ) ) ;
#302 = DIRECTION ( 'NONE',  ( 1.000000000000000000, 0.0000000000000000000, 0.0000000000000000000 ) ) ;
#303 = AXIS2_PLACEMENT_3D ( 'NONE', #347, #261, #1 ) ;
#304 = AXIS2_PLACEMENT_3D ( 'NONE', #166, #111, #278 ) ;
#305 = SURFACE_STYLE_USAGE ( .BOTH. , #275 ) ;
#306 = EDGE_LOOP ( 'NONE', ( #217, #222, #84, #17 ) ) ;
#307 = VERTEX_POINT ( 'NONE', #69 ) ;
#308 = ADVANCED_FACE ( 'NONE', ( #265, #7 ), #129, .F. ) ;
#309 = CARTESIAN_POINT ( 'NONE',  ( 0.0000000000000000000, 0.0000000000000000000, 40.49999999999999289 ) ) ;
#310 = ORIENTED_EDGE ( 'NONE', *, *, #290, .T. ) ;
#311 =( NAMED_UNIT ( * ) PLANE_ANGLE_UNIT ( ) SI_UNIT ( $, .RADIAN. ) );
#312 = VERTEX_POINT ( 'NONE', #355 ) ;
#313 =( NAMED_UNIT ( * ) PLANE_ANGLE_UNIT ( ) SI_UNIT ( $, .RADIAN. ) );
#314 = VERTEX_POINT ( 'NONE', #212 ) ;
#315 = DIRECTION ( 'NONE',  ( -0.0000000000000000000, -0.0000000000000000000, 1.000000000000000000 ) ) ;
#316 = AXIS2_PLACEMENT_3D ( 'NONE', #9, #182, #135 ) ;
#317 = AXIS2_PLACEMENT_3D ( 'NONE', #331, #76, #139 ) ;
#318 = DIRECTION ( 'NONE',  ( 0.0000000000000000000, -0.0000000000000000000, 1.000000000000000000 ) ) ;
#319 = ADVANCED_FACE ( 'NONE', ( #186 ), #268, .T. ) ;
#320 = CARTESIAN_POINT ( 'NONE',  ( 0.0000000000000000000, 0.0000000000000000000, -42.25000000000002132 ) ) ;
#321 = CARTESIAN_POINT ( 'NONE',  ( 0.0000000000000000000, 0.0000000000000000000, 98.43369195224448731 ) ) ;
#322 = VECTOR ( 'NONE', #203, 1000.000000000000000 ) ;
#323 = CARTESIAN_POINT ( 'NONE',  ( -32.50000000000000000, 3.980102097228898626E-15, 42.24999999999999289 ) ) ;
#324 = DIRECTION ( 'NONE',  ( 0.0000000000000000000, -0.0000000000000000000, 1.000000000000000000 ) ) ;
#325 = CARTESIAN_POINT ( 'NONE',  ( 9.250000000000000000, 0.0000000000000000000, -42.25000000000002132 ) ) ;
#326 = DIRECTION ( 'NONE',  ( -0.0000000000000000000, -0.0000000000000000000, 1.000000000000000000 ) ) ;
#327 = AXIS2_PLACEMENT_3D ( 'NONE', #172, #56, #148 ) ;
#328 = EDGE_CURVE ( 'NONE', #79, #254, #297, .T. ) ;
#329 = CYLINDRICAL_SURFACE ( 'NONE', #73, 25.00000000000000000 ) ;
#330 = ADVANCED_BREP_SHAPE_REPRESENTATION ( '4E4CB3EE-63E4-476A-8A55-7734A5C38B32', ( #341, #327 ), #201 ) ;
#331 = CARTESIAN_POINT ( 'NONE',  ( 0.0000000000000000000, 0.0000000000000000000, 98.43369195224448731 ) ) ;
#332 = PRODUCT_DEFINITION_SHAPE ( 'NONE', 'NONE',  #364 ) ;
#333 = VECTOR ( 'NONE', #64, 1000.000000000000000 ) ;
#334 = ORIENTED_EDGE ( 'NONE', *, *, #2, .T. ) ;
#335 = ORIENTED_EDGE ( 'NONE', *, *, #328, .F. ) ;
#336 = VERTEX_POINT ( 'NONE', #218 ) ;
#337 = ORIENTED_EDGE ( 'NONE', *, *, #25, .F. ) ;
#338 = AXIS2_PLACEMENT_3D ( 'NONE', #119, #123, #346 ) ;
#339 = DIRECTION ( 'NONE',  ( -0.0000000000000000000, -0.0000000000000000000, 1.000000000000000000 ) ) ;
#340 = ORIENTED_EDGE ( 'NONE', *, *, #102, .T. ) ;
#341 = MANIFOLD_SOLID_BREP ( 'Revolve1', #373 ) ;
#342 =( NAMED_UNIT ( * ) SI_UNIT ( $, .STERADIAN. ) SOLID_ANGLE_UNIT ( ) );
#343 = VERTEX_POINT ( 'NONE', #78 ) ;
#344 = CARTESIAN_POINT ( 'NONE',  ( 0.0000000000000000000, 0.0000000000000000000, 98.43369195224448731 ) ) ;
#345 = PRESENTATION_LAYER_ASSIGNMENT (  '', '', ( #145 ) ) ;
#346 = DIRECTION ( 'NONE',  ( 1.000000000000000000, 0.0000000000000000000, 0.0000000000000000000 ) ) ;
#347 = CARTESIAN_POINT ( 'NONE',  ( 0.0000000000000000000, 0.0000000000000000000, 98.43369195224448731 ) ) ;
#348 = DIRECTION ( 'NONE',  ( 1.000000000000000000, 0.0000000000000000000, 0.0000000000000000000 ) ) ;
#349 = CARTESIAN_POINT ( 'NONE',  ( -9.249999999999994671, 1.132798289211300909E-15, 98.43369195224448731 ) ) ;
#350 = ADVANCED_FACE ( 'NONE', ( #143 ), #246, .F. ) ;
#351 = CARTESIAN_POINT ( 'NONE',  ( -14.24999999999999822, 1.745121688784978228E-15, 98.43369195224448731 ) ) ;
#352 = CARTESIAN_POINT ( 'NONE',  ( 14.24999999999999822, 0.0000000000000000000, 98.43369195224448731 ) ) ;
#353 = ORIENTED_EDGE ( 'NONE', *, *, #66, .T. ) ;
#354 = EDGE_CURVE ( 'NONE', #16, #213, #46, .T. ) ;
#355 = CARTESIAN_POINT ( 'NONE',  ( -14.24999999999999822, 1.745121688784978228E-15, -42.25000000000002132 ) ) ;
#356 = LINE ( 'NONE', #351, #250 ) ;
#357 = DIRECTION ( 'NONE',  ( -0.0000000000000000000, -0.0000000000000000000, 1.000000000000000000 ) ) ;
#358 = DIRECTION ( 'NONE',  ( 1.000000000000000000, 0.0000000000000000000, 0.0000000000000000000 ) ) ;
#359 = EDGE_CURVE ( 'NONE', #13, #343, #221, .T. ) ;
#360 = ORIENTED_EDGE ( 'NONE', *, *, #90, .T. ) ;
#361 = ORIENTED_EDGE ( 'NONE', *, *, #240, .T. ) ;
#362 = DIRECTION ( 'NONE',  ( 1.000000000000000000, 0.0000000000000000000, 0.0000000000000000000 ) ) ;
#363 = ORIENTED_EDGE ( 'NONE', *, *, #155, .T. ) ;
#364 = PRODUCT_DEFINITION ( 'UNKNOWN', '', #228, #32 ) ;
#365 =( NAMED_UNIT ( * ) SI_UNIT ( $, .STERADIAN. ) SOLID_ANGLE_UNIT ( ) );
#366 = ORIENTED_EDGE ( 'NONE', *, *, #180, .F. ) ;
#367 = AXIS2_PLACEMENT_3D ( 'NONE', #181, #357, #5 ) ;
#368 =( LENGTH_UNIT ( ) NAMED_UNIT ( * ) SI_UNIT ( .MILLI., .METRE. ) );
#369 = EDGE_LOOP ( 'NONE', ( #337, #216 ) ) ;
#370 = FACE_BOUND ( 'NONE', #276, .T. ) ;
#371 = DIRECTION ( 'NONE',  ( -0.0000000000000000000, -0.0000000000000000000, 1.000000000000000000 ) ) ;
#372 = EDGE_CURVE ( 'NONE', #16, #13, #251, .T. ) ;
#373 = CLOSED_SHELL ( 'NONE', ( #260, #55, #207, #319, #245, #12, #308, #127, #60, #133, #86, #350 ) ) ;
#374 = CYLINDRICAL_SURFACE ( 'NONE', #157, 32.50000000000000000 ) ;
ENDSEC;
END-ISO-10303-21;
