ISO-10303-21;
HEADER;
FILE_DESCRIPTION (( 'STEP AP214' ),
    '1' );
FILE_NAME ('40DB8A04-7899-4549-9E31-2C05F289AA45.STEP',
    '2023-08-02T10:59:59',
    ( '' ),
    ( '' ),
    'SwSTEP 2.0',
    'SolidWorks 2022',
    '' );
FILE_SCHEMA (( 'AUTOMOTIVE_DESIGN' ));
ENDSEC;

DATA;
#1 = FACE_OUTER_BOUND ( 'NONE', #76, .T. ) ;
#2 = CARTESIAN_POINT ( 'NONE',  ( 0.0000000000000000000, 0.0000000000000000000, 68.53254827717243813 ) ) ;
#3 = VERTEX_POINT ( 'NONE', #124 ) ;
#4 = ORIENTED_EDGE ( 'NONE', *, *, #16, .F. ) ;
#5 = DIRECTION ( 'NONE',  ( 0.0000000000000000000, 0.0000000000000000000, -1.000000000000000000 ) ) ;
#6 = ORIENTED_EDGE ( 'NONE', *, *, #355, .F. ) ;
#7 = DIRECTION ( 'NONE',  ( -0.0000000000000000000, -0.0000000000000000000, 1.000000000000000000 ) ) ;
#8 = EDGE_CURVE ( 'NONE', #207, #348, #11, .T. ) ;
#9 = CARTESIAN_POINT ( 'NONE',  ( -25.00000000000000711, 3.061616997868383831E-15, 68.53254827717243813 ) ) ;
#10 = DIRECTION ( 'NONE',  ( 1.000000000000000000, 0.0000000000000000000, 0.0000000000000000000 ) ) ;
#11 = CIRCLE ( 'NONE', #67, 25.00000000000001066 ) ;
#12 = ORIENTED_EDGE ( 'NONE', *, *, #8, .F. ) ;
#13 = CYLINDRICAL_SURFACE ( 'NONE', #272, 12.24999999999999645 ) ;
#14 = AXIS2_PLACEMENT_3D ( 'NONE', #174, #31, #148 ) ;
#15 = DIRECTION ( 'NONE',  ( -0.0000000000000000000, -0.0000000000000000000, 1.000000000000000000 ) ) ;
#16 = EDGE_CURVE ( 'NONE', #348, #199, #350, .T. ) ;
#17 = FACE_OUTER_BOUND ( 'NONE', #55, .T. ) ;
#18 = PRODUCT_CONTEXT ( 'NONE', #142, 'mechanical' ) ;
#19 = COLOUR_RGB ( '',0.2509803921568627416, 0.2509803921568627416, 0.2509803921568627416 ) ;
#20 = FACE_OUTER_BOUND ( 'NONE', #215, .T. ) ;
#21 = AXIS2_PLACEMENT_3D ( 'NONE', #359, #240, #329 ) ;
#22 = CARTESIAN_POINT ( 'NONE',  ( 25.00000000000000000, 0.0000000000000000000, 39.99999999999999289 ) ) ;
#23 = CARTESIAN_POINT ( 'NONE',  ( 12.24999999999999645, 0.0000000000000000000, 68.53254827717243813 ) ) ;
#24 = DIRECTION ( 'NONE',  ( 1.000000000000000000, 0.0000000000000000000, 0.0000000000000000000 ) ) ;
#25 = AXIS2_PLACEMENT_3D ( 'NONE', #238, #347, #209 ) ;
#26 =( GEOMETRIC_REPRESENTATION_CONTEXT ( 3 ) GLOBAL_UNCERTAINTY_ASSIGNED_CONTEXT ( ( #126 ) ) GLOBAL_UNIT_ASSIGNED_CONTEXT ( ( #248, #331, #187 ) ) REPRESENTATION_CONTEXT ( 'NONE', 'WORKASPACE' ) );
#27 = VECTOR ( 'NONE', #7, 1000.000000000000000 ) ;
#28 = PRODUCT_DEFINITION_SHAPE ( 'NONE', 'NONE',  #374 ) ;
#29 = MECHANICAL_DESIGN_GEOMETRIC_PRESENTATION_REPRESENTATION (  '', ( #201 ), #26 ) ;
#30 = FACE_OUTER_BOUND ( 'NONE', #153, .T. ) ;
#31 = DIRECTION ( 'NONE',  ( -0.0000000000000000000, -0.0000000000000000000, 1.000000000000000000 ) ) ;
#32 = APPLICATION_CONTEXT ( 'automotive_design' ) ;
#33 = ORIENTED_EDGE ( 'NONE', *, *, #73, .T. ) ;
#34 = CARTESIAN_POINT ( 'NONE',  ( 0.0000000000000000000, 0.0000000000000000000, 39.99999999999999289 ) ) ;
#35 = AXIS2_PLACEMENT_3D ( 'NONE', #34, #182, #41 ) ;
#36 = ORIENTED_EDGE ( 'NONE', *, *, #262, .F. ) ;
#37 = DIRECTION ( 'NONE',  ( -0.0000000000000000000, -0.0000000000000000000, 1.000000000000000000 ) ) ;
#38 = EDGE_CURVE ( 'NONE', #348, #207, #83, .T. ) ;
#39 = UNCERTAINTY_MEASURE_WITH_UNIT (LENGTH_MEASURE( 1.000000000000000082E-05 ), #340, 'distance_accuracy_value', 'NONE');
#40 = CARTESIAN_POINT ( 'NONE',  ( 0.0000000000000000000, 0.0000000000000000000, 68.53254827717243813 ) ) ;
#41 = DIRECTION ( 'NONE',  ( 1.000000000000000000, 0.0000000000000000000, 0.0000000000000000000 ) ) ;
#42 = DIRECTION ( 'NONE',  ( -0.0000000000000000000, -0.0000000000000000000, 1.000000000000000000 ) ) ;
#43 = FILL_AREA_STYLE_COLOUR ( '', #365 ) ;
#44 = AXIS2_PLACEMENT_3D ( 'NONE', #185, #181, #296 ) ;
#45 = FACE_BOUND ( 'NONE', #362, .T. ) ;
#46 = EDGE_CURVE ( 'NONE', #132, #65, #177, .T. ) ;
#47 = DIRECTION ( 'NONE',  ( -0.0000000000000000000, -0.0000000000000000000, 1.000000000000000000 ) ) ;
#48 = CARTESIAN_POINT ( 'NONE',  ( 12.25000000000000178, 0.0000000000000000000, -40.00000000000000711 ) ) ;
#49 = FILL_AREA_STYLE ('',( #364 ) ) ;
#50 = CARTESIAN_POINT ( 'NONE',  ( 9.249999999999985789, 0.0000000000000000000, 68.53254827717243813 ) ) ;
#51 = AXIS2_PLACEMENT_3D ( 'NONE', #107, #243, #303 ) ;
#52 = DIRECTION ( 'NONE',  ( -0.0000000000000000000, -0.0000000000000000000, 1.000000000000000000 ) ) ;
#53 = ADVANCED_FACE ( 'NONE', ( #239 ), #13, .T. ) ;
#54 = PLANE ( 'NONE',  #294 ) ;
#55 = EDGE_LOOP ( 'NONE', ( #290, #332, #149, #305 ) ) ;
#56 = PRODUCT_RELATED_PRODUCT_CATEGORY ( 'part', '', ( #317 ) ) ;
#57 = CARTESIAN_POINT ( 'NONE',  ( -9.249999999999980460, 1.132798289211299529E-15, 42.24999999999999289 ) ) ;
#58 = EDGE_CURVE ( 'NONE', #184, #127, #156, .T. ) ;
#59 = ADVANCED_FACE ( 'NONE', ( #131, #45 ), #242, .F. ) ;
#60 = VECTOR ( 'NONE', #15, 1000.000000000000000 ) ;
#61 = CARTESIAN_POINT ( 'NONE',  ( 0.0000000000000000000, 0.0000000000000000000, 68.53254827717243813 ) ) ;
#62 = AXIS2_PLACEMENT_3D ( 'NONE', #160, #52, #157 ) ;
#63 = CYLINDRICAL_SURFACE ( 'NONE', #14, 9.249999999999985789 ) ;
#64 = CARTESIAN_POINT ( 'NONE',  ( -12.24999999999999112, 1.500192328955506748E-15, 39.99999999999999289 ) ) ;
#65 = VERTEX_POINT ( 'NONE', #166 ) ;
#66 = VERTEX_POINT ( 'NONE', #22 ) ;
#67 = AXIS2_PLACEMENT_3D ( 'NONE', #237, #74, #276 ) ;
#68 = CARTESIAN_POINT ( 'NONE',  ( 0.0000000000000000000, 0.0000000000000000000, -40.00000000000000711 ) ) ;
#69 = AXIS2_PLACEMENT_3D ( 'NONE', #295, #125, #234 ) ;
#70 = DIRECTION ( 'NONE',  ( 1.000000000000000000, 0.0000000000000000000, 0.0000000000000000000 ) ) ;
#71 = ORIENTED_EDGE ( 'NONE', *, *, #169, .T. ) ;
#72 = EDGE_LOOP ( 'NONE', ( #12, #175 ) ) ;
#73 = EDGE_CURVE ( 'NONE', #322, #235, #139, .T. ) ;
#74 = DIRECTION ( 'NONE',  ( -0.0000000000000000000, -0.0000000000000000000, 1.000000000000000000 ) ) ;
#75 = ORIENTED_EDGE ( 'NONE', *, *, #120, .F. ) ;
#76 = EDGE_LOOP ( 'NONE', ( #216, #71 ) ) ;
#77 = DIRECTION ( 'NONE',  ( 1.000000000000000000, 0.0000000000000000000, 0.0000000000000000000 ) ) ;
#78 = AXIS2_PLACEMENT_3D ( 'NONE', #334, #251, #77 ) ;
#79 = DIRECTION ( 'NONE',  ( -0.0000000000000000000, -0.0000000000000000000, 1.000000000000000000 ) ) ;
#80 = DIRECTION ( 'NONE',  ( 1.000000000000000000, 0.0000000000000000000, 0.0000000000000000000 ) ) ;
#81 = CARTESIAN_POINT ( 'NONE',  ( -25.00000000000001421, 3.061616997868384620E-15, -40.00000000000000711 ) ) ;
#82 = ADVANCED_FACE ( 'NONE', ( #281, #161 ), #307, .F. ) ;
#83 = CIRCLE ( 'NONE', #44, 25.00000000000001066 ) ;
#84 = AXIS2_PLACEMENT_3D ( 'NONE', #147, #268, #263 ) ;
#85 = SURFACE_STYLE_FILL_AREA ( #49 ) ;
#86 = ADVANCED_BREP_SHAPE_REPRESENTATION ( '40DB8A04-7899-4549-9E31-2C05F289AA45', ( #123, #78 ), #214 ) ;
#87 = EDGE_LOOP ( 'NONE', ( #280, #202, #321, #358 ) ) ;
#88 = PRESENTATION_LAYER_ASSIGNMENT (  '', '', ( #201 ) ) ;
#89 = DIRECTION ( 'NONE',  ( 1.000000000000000000, 0.0000000000000000000, 0.0000000000000000000 ) ) ;
#90 = MECHANICAL_DESIGN_GEOMETRIC_PRESENTATION_REPRESENTATION (  '', ( #256 ), #144 ) ;
#91 = CARTESIAN_POINT ( 'NONE',  ( 0.0000000000000000000, 0.0000000000000000000, 39.99999999999999289 ) ) ;
#92 = CIRCLE ( 'NONE', #69, 12.24999999999998934 ) ;
#93 = ORIENTED_EDGE ( 'NONE', *, *, #110, .F. ) ;
#94 = CARTESIAN_POINT ( 'NONE',  ( 25.00000000000000711, 0.0000000000000000000, 68.53254827717243813 ) ) ;
#95 = ORIENTED_EDGE ( 'NONE', *, *, #253, .T. ) ;
#96 = DIRECTION ( 'NONE',  ( -0.0000000000000000000, -0.0000000000000000000, 1.000000000000000000 ) ) ;
#97 = ORIENTED_EDGE ( 'NONE', *, *, #200, .T. ) ;
#98 = CYLINDRICAL_SURFACE ( 'NONE', #241, 12.24999999999999645 ) ;
#99 = CIRCLE ( 'NONE', #286, 9.249999999999991118 ) ;
#100 = EDGE_LOOP ( 'NONE', ( #208, #6, #265, #254 ) ) ;
#101 = DIRECTION ( 'NONE',  ( -0.0000000000000000000, -0.0000000000000000000, 1.000000000000000000 ) ) ;
#102 = ADVANCED_FACE ( 'NONE', ( #252 ), #370, .T. ) ;
#103 = ORIENTED_EDGE ( 'NONE', *, *, #120, .T. ) ;
#104 = ORIENTED_EDGE ( 'NONE', *, *, #46, .T. ) ;
#105 = ORIENTED_EDGE ( 'NONE', *, *, #319, .T. ) ;
#106 = ORIENTED_EDGE ( 'NONE', *, *, #196, .T. ) ;
#107 = CARTESIAN_POINT ( 'NONE',  ( 0.0000000000000000000, 0.0000000000000000000, -42.25000000000000711 ) ) ;
#108 = SURFACE_STYLE_USAGE ( .BOTH. , #198 ) ;
#109 = CARTESIAN_POINT ( 'NONE',  ( -12.24999999999998934, 1.500192328955506748E-15, -42.25000000000000711 ) ) ;
#110 = EDGE_CURVE ( 'NONE', #184, #3, #278, .T. ) ;
#111 = SHAPE_DEFINITION_REPRESENTATION ( #28, #86 ) ;
#112 = CARTESIAN_POINT ( 'NONE',  ( -12.24999999999999645, 1.500192328955507340E-15, 68.53254827717243813 ) ) ;
#113 = DIRECTION ( 'NONE',  ( -0.0000000000000000000, -0.0000000000000000000, 1.000000000000000000 ) ) ;
#114 = LINE ( 'NONE', #50, #352 ) ;
#115 = AXIS2_PLACEMENT_3D ( 'NONE', #282, #79, #226 ) ;
#116 = EDGE_CURVE ( 'NONE', #3, #335, #114, .T. ) ;
#117 = DIRECTION ( 'NONE',  ( 1.000000000000000000, 0.0000000000000000000, 0.0000000000000000000 ) ) ;
#118 = CARTESIAN_POINT ( 'NONE',  ( 0.0000000000000000000, 25.00000000000000000, 39.99999999999999289 ) ) ;
#119 = FACE_OUTER_BOUND ( 'NONE', #245, .T. ) ;
#120 = EDGE_CURVE ( 'NONE', #218, #360, #221, .T. ) ;
#121 = ORIENTED_EDGE ( 'NONE', *, *, #363, .F. ) ;
#122 = CYLINDRICAL_SURFACE ( 'NONE', #371, 12.24999999999998579 ) ;
#123 = MANIFOLD_SOLID_BREP ( 'Revolve1', #170 ) ;
#124 = CARTESIAN_POINT ( 'NONE',  ( 9.249999999999991118, 0.0000000000000000000, -42.25000000000000711 ) ) ;
#125 = DIRECTION ( 'NONE',  ( -0.0000000000000000000, -0.0000000000000000000, 1.000000000000000000 ) ) ;
#126 = UNCERTAINTY_MEASURE_WITH_UNIT (LENGTH_MEASURE( 1.000000000000000082E-05 ), #248, 'distance_accuracy_value', 'NONE');
#127 = VERTEX_POINT ( 'NONE', #57 ) ;
#128 = VECTOR ( 'NONE', #333, 1000.000000000000000 ) ;
#129 = EDGE_CURVE ( 'NONE', #65, #132, #163, .T. ) ;
#130 = CIRCLE ( 'NONE', #62, 9.249999999999980460 ) ;
#131 = FACE_OUTER_BOUND ( 'NONE', #72, .T. ) ;
#132 = VERTEX_POINT ( 'NONE', #277 ) ;
#133 = SURFACE_STYLE_USAGE ( .BOTH. , #308 ) ;
#134 = ORIENTED_EDGE ( 'NONE', *, *, #274, .F. ) ;
#135 = SURFACE_STYLE_FILL_AREA ( #275 ) ;
#136 = ADVANCED_FACE ( 'NONE', ( #17 ), #311, .T. ) ;
#137 = CARTESIAN_POINT ( 'NONE',  ( 0.0000000000000000000, 0.0000000000000000000, 68.53254827717243813 ) ) ;
#138 = APPLICATION_PROTOCOL_DEFINITION ( 'draft international standard', 'automotive_design', 1998, #142 ) ;
#139 = LINE ( 'NONE', #112, #222 ) ;
#140 =( NAMED_UNIT ( * ) PLANE_ANGLE_UNIT ( ) SI_UNIT ( $, .RADIAN. ) );
#141 = ADVANCED_FACE ( 'NONE', ( #194, #20 ), #54, .F. ) ;
#142 = APPLICATION_CONTEXT ( 'automotive_design' ) ;
#143 = DIRECTION ( 'NONE',  ( 0.0000000000000000000, -0.0000000000000000000, 1.000000000000000000 ) ) ;
#144 =( GEOMETRIC_REPRESENTATION_CONTEXT ( 3 ) GLOBAL_UNCERTAINTY_ASSIGNED_CONTEXT ( ( #39 ) ) GLOBAL_UNIT_ASSIGNED_CONTEXT ( ( #340, #140, #255 ) ) REPRESENTATION_CONTEXT ( 'NONE', 'WORKASPACE' ) );
#145 = ADVANCED_FACE ( 'NONE', ( #247 ), #219, .T. ) ;
#146 = CIRCLE ( 'NONE', #25, 25.00000000000000000 ) ;
#147 = CARTESIAN_POINT ( 'NONE',  ( 0.0000000000000000000, 0.0000000000000000000, -40.00000000000000711 ) ) ;
#148 = DIRECTION ( 'NONE',  ( 1.000000000000000000, 0.0000000000000000000, 0.0000000000000000000 ) ) ;
#149 = ORIENTED_EDGE ( 'NONE', *, *, #129, .F. ) ;
#150 = DIRECTION ( 'NONE',  ( -0.0000000000000000000, -0.0000000000000000000, 1.000000000000000000 ) ) ;
#151 = ORIENTED_EDGE ( 'NONE', *, *, #110, .T. ) ;
#152 = CARTESIAN_POINT ( 'NONE',  ( 12.24999999999998934, 0.0000000000000000000, -42.25000000000000711 ) ) ;
#153 = EDGE_LOOP ( 'NONE', ( #134, #211, #324, #178 ) ) ;
#154 = DIRECTION ( 'NONE',  ( 1.000000000000000000, 0.0000000000000000000, 0.0000000000000000000 ) ) ;
#155 = ADVANCED_FACE ( 'NONE', ( #203 ), #297, .F. ) ;
#156 = LINE ( 'NONE', #273, #128 ) ;
#157 = DIRECTION ( 'NONE',  ( 1.000000000000000000, 0.0000000000000000000, 0.0000000000000000000 ) ) ;
#158 = EDGE_LOOP ( 'NONE', ( #4, #292, #106, #337 ) ) ;
#159 = CARTESIAN_POINT ( 'NONE',  ( 0.0000000000000000000, 25.00000000000001066, -40.00000000000000711 ) ) ;
#160 = CARTESIAN_POINT ( 'NONE',  ( 0.0000000000000000000, 0.0000000000000000000, 42.24999999999999289 ) ) ;
#161 = FACE_BOUND ( 'NONE', #289, .T. ) ;
#162 = CARTESIAN_POINT ( 'NONE',  ( 0.0000000000000000000, 0.0000000000000000000, -42.25000000000000711 ) ) ;
#163 = CIRCLE ( 'NONE', #210, 12.24999999999998046 ) ;
#164 = CIRCLE ( 'NONE', #51, 12.24999999999998934 ) ;
#165 =( NAMED_UNIT ( * ) PLANE_ANGLE_UNIT ( ) SI_UNIT ( $, .RADIAN. ) );
#166 = CARTESIAN_POINT ( 'NONE',  ( 12.24999999999998046, 0.0000000000000000000, 42.24999999999999289 ) ) ;
#167 = EDGE_LOOP ( 'NONE', ( #330, #197 ) ) ;
#168 = PRESENTATION_STYLE_ASSIGNMENT (( #108 ) ) ;
#169 = EDGE_CURVE ( 'NONE', #199, #66, #146, .T. ) ;
#170 = CLOSED_SHELL ( 'NONE', ( #136, #313, #183, #102, #230, #145, #59, #53, #82, #155, #141, #173 ) ) ;
#171 = CIRCLE ( 'NONE', #84, 12.25000000000000178 ) ;
#172 = DIRECTION ( 'NONE',  ( -0.0000000000000000000, -0.0000000000000000000, 1.000000000000000000 ) ) ;
#173 = ADVANCED_FACE ( 'NONE', ( #30 ), #122, .T. ) ;
#174 = CARTESIAN_POINT ( 'NONE',  ( 0.0000000000000000000, 0.0000000000000000000, 68.53254827717243813 ) ) ;
#175 = ORIENTED_EDGE ( 'NONE', *, *, #38, .F. ) ;
#176 = DIRECTION ( 'NONE',  ( 1.000000000000000000, 0.0000000000000000000, 0.0000000000000000000 ) ) ;
#177 = CIRCLE ( 'NONE', #315, 12.24999999999998046 ) ;
#178 = ORIENTED_EDGE ( 'NONE', *, *, #46, .F. ) ;
#179 = ORIENTED_EDGE ( 'NONE', *, *, #253, .F. ) ;
#180 = LINE ( 'NONE', #94, #343 ) ;
#181 = DIRECTION ( 'NONE',  ( -0.0000000000000000000, -0.0000000000000000000, 1.000000000000000000 ) ) ;
#182 = DIRECTION ( 'NONE',  ( -0.0000000000000000000, -0.0000000000000000000, 1.000000000000000000 ) ) ;
#183 = ADVANCED_FACE ( 'NONE', ( #119 ), #98, .T. ) ;
#184 = VERTEX_POINT ( 'NONE', #323 ) ;
#185 = CARTESIAN_POINT ( 'NONE',  ( 0.0000000000000000000, 0.0000000000000000000, -40.00000000000000711 ) ) ;
#186 = DIRECTION ( 'NONE',  ( 1.000000000000000000, 0.0000000000000000000, 0.0000000000000000000 ) ) ;
#187 =( NAMED_UNIT ( * ) SI_UNIT ( $, .STERADIAN. ) SOLID_ANGLE_UNIT ( ) );
#188 = AXIS2_PLACEMENT_3D ( 'NONE', #212, #232, #206 ) ;
#189 = DIRECTION ( 'NONE',  ( 0.0000000000000000000, 0.0000000000000000000, -1.000000000000000000 ) ) ;
#190 = EDGE_CURVE ( 'NONE', #360, #235, #279, .T. ) ;
#191 = PRESENTATION_STYLE_ASSIGNMENT (( #133 ) ) ;
#192 = DIRECTION ( 'NONE',  ( 0.0000000000000000000, -0.0000000000000000000, 1.000000000000000000 ) ) ;
#193 = CARTESIAN_POINT ( 'NONE',  ( 9.249999999999980460, 0.0000000000000000000, 42.24999999999999289 ) ) ;
#194 = FACE_BOUND ( 'NONE', #328, .T. ) ;
#195 = VECTOR ( 'NONE', #304, 1000.000000000000000 ) ;
#196 = EDGE_CURVE ( 'NONE', #207, #66, #180, .T. ) ;
#197 = ORIENTED_EDGE ( 'NONE', *, *, #223, .F. ) ;
#198 = SURFACE_SIDE_STYLE ('',( #85 ) ) ;
#199 = VERTEX_POINT ( 'NONE', #287 ) ;
#200 = EDGE_CURVE ( 'NONE', #235, #360, #171, .T. ) ;
#201 = STYLED_ITEM ( 'NONE', ( #191 ), #86 ) ;
#202 = ORIENTED_EDGE ( 'NONE', *, *, #16, .T. ) ;
#203 = FACE_OUTER_BOUND ( 'NONE', #100, .T. ) ;
#204 = EDGE_CURVE ( 'NONE', #327, #65, #288, .T. ) ;
#205 = DIRECTION ( 'NONE',  ( 1.000000000000000000, 0.0000000000000000000, 0.0000000000000000000 ) ) ;
#206 = DIRECTION ( 'NONE',  ( 1.000000000000000000, 0.0000000000000000000, 0.0000000000000000000 ) ) ;
#207 = VERTEX_POINT ( 'NONE', #231 ) ;
#208 = ORIENTED_EDGE ( 'NONE', *, *, #58, .F. ) ;
#209 = DIRECTION ( 'NONE',  ( 1.000000000000000000, 0.0000000000000000000, 0.0000000000000000000 ) ) ;
#210 = AXIS2_PLACEMENT_3D ( 'NONE', #338, #47, #24 ) ;
#211 = ORIENTED_EDGE ( 'NONE', *, *, #262, .T. ) ;
#212 = CARTESIAN_POINT ( 'NONE',  ( 0.0000000000000000000, 0.0000000000000000000, 42.24999999999999289 ) ) ;
#213 = EDGE_LOOP ( 'NONE', ( #229, #357, #103, #312 ) ) ;
#214 =( GEOMETRIC_REPRESENTATION_CONTEXT ( 3 ) GLOBAL_UNCERTAINTY_ASSIGNED_CONTEXT ( ( #269 ) ) GLOBAL_UNIT_ASSIGNED_CONTEXT ( ( #246, #165, #300 ) ) REPRESENTATION_CONTEXT ( 'NONE', 'WORKASPACE' ) );
#215 = EDGE_LOOP ( 'NONE', ( #361, #104 ) ) ;
#216 = ORIENTED_EDGE ( 'NONE', *, *, #314, .T. ) ;
#217 = ORIENTED_EDGE ( 'NONE', *, *, #58, .T. ) ;
#218 = VERTEX_POINT ( 'NONE', #152 ) ;
#219 = CYLINDRICAL_SURFACE ( 'NONE', #354, 25.00000000000000711 ) ;
#220 = DIRECTION ( 'NONE',  ( 1.000000000000000000, 0.0000000000000000000, 0.0000000000000000000 ) ) ;
#221 = LINE ( 'NONE', #23, #195 ) ;
#222 = VECTOR ( 'NONE', #113, 1000.000000000000000 ) ;
#223 = EDGE_CURVE ( 'NONE', #322, #218, #92, .T. ) ;
#224 = ORIENTED_EDGE ( 'NONE', *, *, #190, .F. ) ;
#225 = AXIS2_PLACEMENT_3D ( 'NONE', #2, #264, #154 ) ;
#226 = DIRECTION ( 'NONE',  ( 1.000000000000000000, 0.0000000000000000000, 0.0000000000000000000 ) ) ;
#227 = DIRECTION ( 'NONE',  ( -0.0000000000000000000, -0.0000000000000000000, 1.000000000000000000 ) ) ;
#228 = PRESENTATION_LAYER_ASSIGNMENT (  '', '', ( #256 ) ) ;
#229 = ORIENTED_EDGE ( 'NONE', *, *, #73, .F. ) ;
#230 = ADVANCED_FACE ( 'NONE', ( #345, #1 ), #351, .F. ) ;
#231 = CARTESIAN_POINT ( 'NONE',  ( 25.00000000000001066, 0.0000000000000000000, -40.00000000000000711 ) ) ;
#232 = DIRECTION ( 'NONE',  ( -0.0000000000000000000, -0.0000000000000000000, 1.000000000000000000 ) ) ;
#233 = CIRCLE ( 'NONE', #188, 9.249999999999980460 ) ;
#234 = DIRECTION ( 'NONE',  ( 1.000000000000000000, 0.0000000000000000000, 0.0000000000000000000 ) ) ;
#235 = VERTEX_POINT ( 'NONE', #349 ) ;
#236 = DIRECTION ( 'NONE',  ( -1.000000000000000000, 0.0000000000000000000, -0.0000000000000000000 ) ) ;
#237 = CARTESIAN_POINT ( 'NONE',  ( 0.0000000000000000000, 0.0000000000000000000, -40.00000000000000711 ) ) ;
#238 = CARTESIAN_POINT ( 'NONE',  ( 0.0000000000000000000, 0.0000000000000000000, 39.99999999999999289 ) ) ;
#239 = FACE_OUTER_BOUND ( 'NONE', #213, .T. ) ;
#240 = DIRECTION ( 'NONE',  ( -0.0000000000000000000, -0.0000000000000000000, 1.000000000000000000 ) ) ;
#241 = AXIS2_PLACEMENT_3D ( 'NONE', #61, #37, #176 ) ;
#242 = PLANE ( 'NONE',  #306 ) ;
#243 = DIRECTION ( 'NONE',  ( -0.0000000000000000000, -0.0000000000000000000, 1.000000000000000000 ) ) ;
#244 = EDGE_LOOP ( 'NONE', ( #270, #36 ) ) ;
#245 = EDGE_LOOP ( 'NONE', ( #105, #33, #224, #75 ) ) ;
#246 =( LENGTH_UNIT ( ) NAMED_UNIT ( * ) SI_UNIT ( .MILLI., .METRE. ) );
#247 = FACE_OUTER_BOUND ( 'NONE', #158, .T. ) ;
#248 =( LENGTH_UNIT ( ) NAMED_UNIT ( * ) SI_UNIT ( .MILLI., .METRE. ) );
#249 = AXIS2_PLACEMENT_3D ( 'NONE', #91, #320, #205 ) ;
#250 = DIRECTION ( 'NONE',  ( 1.000000000000000000, 0.0000000000000000000, 0.0000000000000000000 ) ) ;
#251 = DIRECTION ( 'NONE',  ( 0.0000000000000000000, 0.0000000000000000000, 1.000000000000000000 ) ) ;
#252 = FACE_OUTER_BOUND ( 'NONE', #87, .T. ) ;
#253 = EDGE_CURVE ( 'NONE', #127, #335, #233, .T. ) ;
#254 = ORIENTED_EDGE ( 'NONE', *, *, #363, .T. ) ;
#255 =( NAMED_UNIT ( * ) SI_UNIT ( $, .STERADIAN. ) SOLID_ANGLE_UNIT ( ) );
#256 = STYLED_ITEM ( 'NONE', ( #168 ), #123 ) ;
#257 = VECTOR ( 'NONE', #96, 1000.000000000000000 ) ;
#258 = CARTESIAN_POINT ( 'NONE',  ( 0.0000000000000000000, 0.0000000000000000000, 68.53254827717243813 ) ) ;
#259 = PRODUCT_DEFINITION_FORMATION_WITH_SPECIFIED_SOURCE ( 'ANY', '', #317, .NOT_KNOWN. ) ;
#260 = EDGE_CURVE ( 'NONE', #327, #267, #373, .T. ) ;
#261 = CIRCLE ( 'NONE', #21, 25.00000000000000000 ) ;
#262 = EDGE_CURVE ( 'NONE', #267, #327, #285, .T. ) ;
#263 = DIRECTION ( 'NONE',  ( 1.000000000000000000, 0.0000000000000000000, 0.0000000000000000000 ) ) ;
#264 = DIRECTION ( 'NONE',  ( -0.0000000000000000000, -0.0000000000000000000, 1.000000000000000000 ) ) ;
#265 = ORIENTED_EDGE ( 'NONE', *, *, #116, .T. ) ;
#266 = CARTESIAN_POINT ( 'NONE',  ( 0.0000000000000000000, 0.0000000000000000000, 68.53254827717243813 ) ) ;
#267 = VERTEX_POINT ( 'NONE', #64 ) ;
#268 = DIRECTION ( 'NONE',  ( -0.0000000000000000000, -0.0000000000000000000, 1.000000000000000000 ) ) ;
#269 = UNCERTAINTY_MEASURE_WITH_UNIT (LENGTH_MEASURE( 1.000000000000000082E-05 ), #246, 'distance_accuracy_value', 'NONE');
#270 = ORIENTED_EDGE ( 'NONE', *, *, #260, .F. ) ;
#271 = LINE ( 'NONE', #291, #257 ) ;
#272 = AXIS2_PLACEMENT_3D ( 'NONE', #40, #353, #299 ) ;
#273 = CARTESIAN_POINT ( 'NONE',  ( -9.249999999999985789, 1.132798289211299923E-15, 68.53254827717243813 ) ) ;
#274 = EDGE_CURVE ( 'NONE', #267, #132, #271, .T. ) ;
#275 = FILL_AREA_STYLE ('',( #43 ) ) ;
#276 = DIRECTION ( 'NONE',  ( 1.000000000000000000, 0.0000000000000000000, 0.0000000000000000000 ) ) ;
#277 = CARTESIAN_POINT ( 'NONE',  ( -12.24999999999998046, 1.500192328955505565E-15, 42.24999999999999289 ) ) ;
#278 = CIRCLE ( 'NONE', #369, 9.249999999999991118 ) ;
#279 = CIRCLE ( 'NONE', #346, 12.25000000000000178 ) ;
#280 = ORIENTED_EDGE ( 'NONE', *, *, #8, .T. ) ;
#281 = FACE_OUTER_BOUND ( 'NONE', #167, .T. ) ;
#282 = CARTESIAN_POINT ( 'NONE',  ( 0.0000000000000000000, 0.0000000000000000000, 68.53254827717243813 ) ) ;
#283 = CARTESIAN_POINT ( 'NONE',  ( 0.0000000000000000000, 0.0000000000000000000, -42.25000000000000711 ) ) ;
#284 = EDGE_LOOP ( 'NONE', ( #93, #217, #95, #293 ) ) ;
#285 = CIRCLE ( 'NONE', #249, 12.24999999999999112 ) ;
#286 = AXIS2_PLACEMENT_3D ( 'NONE', #162, #101, #10 ) ;
#287 = CARTESIAN_POINT ( 'NONE',  ( -25.00000000000000000, 3.061616997868383437E-15, 39.99999999999999289 ) ) ;
#288 = LINE ( 'NONE', #344, #27 ) ;
#289 = EDGE_LOOP ( 'NONE', ( #368, #151 ) ) ;
#290 = ORIENTED_EDGE ( 'NONE', *, *, #260, .T. ) ;
#291 = CARTESIAN_POINT ( 'NONE',  ( -12.24999999999998579, 1.500192328955506157E-15, 68.53254827717243813 ) ) ;
#292 = ORIENTED_EDGE ( 'NONE', *, *, #38, .T. ) ;
#293 = ORIENTED_EDGE ( 'NONE', *, *, #116, .F. ) ;
#294 = AXIS2_PLACEMENT_3D ( 'NONE', #342, #189, #302 ) ;
#295 = CARTESIAN_POINT ( 'NONE',  ( 0.0000000000000000000, 0.0000000000000000000, -42.25000000000000711 ) ) ;
#296 = DIRECTION ( 'NONE',  ( 1.000000000000000000, 0.0000000000000000000, 0.0000000000000000000 ) ) ;
#297 = CYLINDRICAL_SURFACE ( 'NONE', #225, 9.249999999999985789 ) ;
#298 = CARTESIAN_POINT ( 'NONE',  ( 0.0000000000000000000, 0.0000000000000000000, 42.24999999999999289 ) ) ;
#299 = DIRECTION ( 'NONE',  ( 1.000000000000000000, 0.0000000000000000000, 0.0000000000000000000 ) ) ;
#300 =( NAMED_UNIT ( * ) SI_UNIT ( $, .STERADIAN. ) SOLID_ANGLE_UNIT ( ) );
#301 = PRODUCT_DEFINITION_CONTEXT ( 'detailed design', #32, 'design' ) ;
#302 = DIRECTION ( 'NONE',  ( -1.000000000000000000, 0.0000000000000000000, -0.0000000000000000000 ) ) ;
#303 = DIRECTION ( 'NONE',  ( 1.000000000000000000, 0.0000000000000000000, 0.0000000000000000000 ) ) ;
#304 = DIRECTION ( 'NONE',  ( -0.0000000000000000000, -0.0000000000000000000, 1.000000000000000000 ) ) ;
#305 = ORIENTED_EDGE ( 'NONE', *, *, #204, .F. ) ;
#306 = AXIS2_PLACEMENT_3D ( 'NONE', #159, #143, #250 ) ;
#307 = PLANE ( 'NONE',  #339 ) ;
#308 = SURFACE_SIDE_STYLE ('',( #135 ) ) ;
#309 = AXIS2_PLACEMENT_3D ( 'NONE', #258, #227, #80 ) ;
#310 = ORIENTED_EDGE ( 'NONE', *, *, #190, .T. ) ;
#311 = CYLINDRICAL_SURFACE ( 'NONE', #309, 12.24999999999998579 ) ;
#312 = ORIENTED_EDGE ( 'NONE', *, *, #200, .F. ) ;
#313 = ADVANCED_FACE ( 'NONE', ( #318 ), #63, .F. ) ;
#314 = EDGE_CURVE ( 'NONE', #66, #199, #261, .T. ) ;
#315 = AXIS2_PLACEMENT_3D ( 'NONE', #298, #42, #186 ) ;
#316 = DIRECTION ( 'NONE',  ( -0.0000000000000000000, -0.0000000000000000000, 1.000000000000000000 ) ) ;
#317 = PRODUCT ( '40DB8A04-7899-4549-9E31-2C05F289AA45', '40DB8A04-7899-4549-9E31-2C05F289AA45', '', ( #18 ) ) ;
#318 = FACE_OUTER_BOUND ( 'NONE', #284, .T. ) ;
#319 = EDGE_CURVE ( 'NONE', #218, #322, #164, .T. ) ;
#320 = DIRECTION ( 'NONE',  ( -0.0000000000000000000, -0.0000000000000000000, 1.000000000000000000 ) ) ;
#321 = ORIENTED_EDGE ( 'NONE', *, *, #314, .F. ) ;
#322 = VERTEX_POINT ( 'NONE', #109 ) ;
#323 = CARTESIAN_POINT ( 'NONE',  ( -9.249999999999992895, 1.132798289211300712E-15, -42.25000000000000711 ) ) ;
#324 = ORIENTED_EDGE ( 'NONE', *, *, #204, .T. ) ;
#325 = AXIS2_PLACEMENT_3D ( 'NONE', #118, #5, #236 ) ;
#326 = DIRECTION ( 'NONE',  ( -0.0000000000000000000, -0.0000000000000000000, 1.000000000000000000 ) ) ;
#327 = VERTEX_POINT ( 'NONE', #356 ) ;
#328 = EDGE_LOOP ( 'NONE', ( #121, #179 ) ) ;
#329 = DIRECTION ( 'NONE',  ( 1.000000000000000000, 0.0000000000000000000, 0.0000000000000000000 ) ) ;
#330 = ORIENTED_EDGE ( 'NONE', *, *, #319, .F. ) ;
#331 =( NAMED_UNIT ( * ) PLANE_ANGLE_UNIT ( ) SI_UNIT ( $, .RADIAN. ) );
#332 = ORIENTED_EDGE ( 'NONE', *, *, #274, .T. ) ;
#333 = DIRECTION ( 'NONE',  ( -0.0000000000000000000, -0.0000000000000000000, 1.000000000000000000 ) ) ;
#334 = CARTESIAN_POINT ( 'NONE',  ( 0.0000000000000000000, 0.0000000000000000000, 0.0000000000000000000 ) ) ;
#335 = VERTEX_POINT ( 'NONE', #193 ) ;
#336 = DIRECTION ( 'NONE',  ( -0.0000000000000000000, -0.0000000000000000000, 1.000000000000000000 ) ) ;
#337 = ORIENTED_EDGE ( 'NONE', *, *, #169, .F. ) ;
#338 = CARTESIAN_POINT ( 'NONE',  ( 0.0000000000000000000, 0.0000000000000000000, 42.24999999999999289 ) ) ;
#339 = AXIS2_PLACEMENT_3D ( 'NONE', #372, #192, #220 ) ;
#340 =( LENGTH_UNIT ( ) NAMED_UNIT ( * ) SI_UNIT ( .MILLI., .METRE. ) );
#341 = DIRECTION ( 'NONE',  ( 1.000000000000000000, 0.0000000000000000000, 0.0000000000000000000 ) ) ;
#342 = CARTESIAN_POINT ( 'NONE',  ( 0.0000000000000000000, 12.24999999999998046, 42.24999999999999289 ) ) ;
#343 = VECTOR ( 'NONE', #172, 1000.000000000000000 ) ;
#344 = CARTESIAN_POINT ( 'NONE',  ( 12.24999999999998579, 0.0000000000000000000, 68.53254827717243813 ) ) ;
#345 = FACE_BOUND ( 'NONE', #244, .T. ) ;
#346 = AXIS2_PLACEMENT_3D ( 'NONE', #68, #326, #70 ) ;
#347 = DIRECTION ( 'NONE',  ( -0.0000000000000000000, -0.0000000000000000000, 1.000000000000000000 ) ) ;
#348 = VERTEX_POINT ( 'NONE', #81 ) ;
#349 = CARTESIAN_POINT ( 'NONE',  ( -12.25000000000000178, 1.500192328955507734E-15, -40.00000000000000711 ) ) ;
#350 = LINE ( 'NONE', #9, #60 ) ;
#351 = PLANE ( 'NONE',  #325 ) ;
#352 = VECTOR ( 'NONE', #367, 1000.000000000000000 ) ;
#353 = DIRECTION ( 'NONE',  ( -0.0000000000000000000, -0.0000000000000000000, 1.000000000000000000 ) ) ;
#354 = AXIS2_PLACEMENT_3D ( 'NONE', #137, #150, #89 ) ;
#355 = EDGE_CURVE ( 'NONE', #3, #184, #99, .T. ) ;
#356 = CARTESIAN_POINT ( 'NONE',  ( 12.24999999999999112, 0.0000000000000000000, 39.99999999999999289 ) ) ;
#357 = ORIENTED_EDGE ( 'NONE', *, *, #223, .T. ) ;
#358 = ORIENTED_EDGE ( 'NONE', *, *, #196, .F. ) ;
#359 = CARTESIAN_POINT ( 'NONE',  ( 0.0000000000000000000, 0.0000000000000000000, 39.99999999999999289 ) ) ;
#360 = VERTEX_POINT ( 'NONE', #48 ) ;
#361 = ORIENTED_EDGE ( 'NONE', *, *, #129, .T. ) ;
#362 = EDGE_LOOP ( 'NONE', ( #310, #97 ) ) ;
#363 = EDGE_CURVE ( 'NONE', #335, #127, #130, .T. ) ;
#364 = FILL_AREA_STYLE_COLOUR ( '', #19 ) ;
#365 = COLOUR_RGB ( '',0.2509803921568627416, 0.2509803921568627416, 0.2509803921568627416 ) ;
#366 = APPLICATION_PROTOCOL_DEFINITION ( 'draft international standard', 'automotive_design', 1998, #32 ) ;
#367 = DIRECTION ( 'NONE',  ( -0.0000000000000000000, -0.0000000000000000000, 1.000000000000000000 ) ) ;
#368 = ORIENTED_EDGE ( 'NONE', *, *, #355, .T. ) ;
#369 = AXIS2_PLACEMENT_3D ( 'NONE', #283, #336, #341 ) ;
#370 = CYLINDRICAL_SURFACE ( 'NONE', #115, 25.00000000000000711 ) ;
#371 = AXIS2_PLACEMENT_3D ( 'NONE', #266, #316, #117 ) ;
#372 = CARTESIAN_POINT ( 'NONE',  ( 0.0000000000000000000, 12.24999999999998934, -42.25000000000000711 ) ) ;
#373 = CIRCLE ( 'NONE', #35, 12.24999999999999112 ) ;
#374 = PRODUCT_DEFINITION ( 'UNKNOWN', '', #259, #301 ) ;
ENDSEC;
END-ISO-10303-21;
