ISO-10303-21;
HEADER;
FILE_DESCRIPTION (( 'STEP AP214' ),
    '1' );
FILE_NAME ('40BB0926-3F4C-4D4F-B2F2-A70A73FC3EB7.STEP',
    '2023-08-02T11:10:07',
    ( '' ),
    ( '' ),
    'SwSTEP 2.0',
    'SolidWorks 2022',
    '' );
FILE_SCHEMA (( 'AUTOMOTIVE_DESIGN' ));
ENDSEC;

DATA;
#1 = DIRECTION ( 'NONE',  ( 1.000000000000000000, 0.0000000000000000000, 0.0000000000000000000 ) ) ;
#2 = CARTESIAN_POINT ( 'NONE',  ( 9.249999999999980460, 0.0000000000000000000, 40.99999999999999289 ) ) ;
#3 = MECHANICAL_DESIGN_GEOMETRIC_PRESENTATION_REPRESENTATION (  '', ( #56 ), #149 ) ;
#4 = AXIS2_PLACEMENT_3D ( 'NONE', #346, #312, #252 ) ;
#5 = DIRECTION ( 'NONE',  ( 1.000000000000000000, 0.0000000000000000000, 0.0000000000000000000 ) ) ;
#6 = ORIENTED_EDGE ( 'NONE', *, *, #280, .F. ) ;
#7 = VERTEX_POINT ( 'NONE', #119 ) ;
#8 = DIRECTION ( 'NONE',  ( -0.0000000000000000000, -0.0000000000000000000, 1.000000000000000000 ) ) ;
#9 = FACE_OUTER_BOUND ( 'NONE', #335, .T. ) ;
#10 = DIRECTION ( 'NONE',  ( -0.0000000000000000000, -0.0000000000000000000, 1.000000000000000000 ) ) ;
#11 = CARTESIAN_POINT ( 'NONE',  ( 9.249999999999985789, 0.0000000000000000000, 68.53254827717243813 ) ) ;
#12 = ORIENTED_EDGE ( 'NONE', *, *, #293, .T. ) ;
#13 = DIRECTION ( 'NONE',  ( 1.000000000000000000, 0.0000000000000000000, 0.0000000000000000000 ) ) ;
#14 = ORIENTED_EDGE ( 'NONE', *, *, #237, .T. ) ;
#15 = FILL_AREA_STYLE ('',( #270 ) ) ;
#16 = COLOUR_RGB ( '',0.2509803921568627416, 0.2509803921568627416, 0.2509803921568627416 ) ;
#17 = FACE_OUTER_BOUND ( 'NONE', #334, .T. ) ;
#18 = EDGE_LOOP ( 'NONE', ( #287, #180 ) ) ;
#19 = VERTEX_POINT ( 'NONE', #155 ) ;
#20 = CARTESIAN_POINT ( 'NONE',  ( 0.0000000000000000000, 0.0000000000000000000, 68.53254827717243813 ) ) ;
#21 = CIRCLE ( 'NONE', #305, 9.249999999999980460 ) ;
#22 = EDGE_CURVE ( 'NONE', #135, #362, #181, .T. ) ;
#23 = ORIENTED_EDGE ( 'NONE', *, *, #192, .T. ) ;
#24 = DIRECTION ( 'NONE',  ( 1.000000000000000000, 0.0000000000000000000, 0.0000000000000000000 ) ) ;
#25 = CARTESIAN_POINT ( 'NONE',  ( 25.00000000000001066, 0.0000000000000000000, -40.00000000000000711 ) ) ;
#26 = DIRECTION ( 'NONE',  ( 1.000000000000000000, 0.0000000000000000000, 0.0000000000000000000 ) ) ;
#27 = CARTESIAN_POINT ( 'NONE',  ( 12.24999999999998046, 0.0000000000000000000, 40.99999999999999289 ) ) ;
#28 = FACE_BOUND ( 'NONE', #18, .T. ) ;
#29 = FILL_AREA_STYLE_COLOUR ( '', #323 ) ;
#30 = DIRECTION ( 'NONE',  ( -0.0000000000000000000, -0.0000000000000000000, 1.000000000000000000 ) ) ;
#31 = EDGE_CURVE ( 'NONE', #19, #102, #62, .T. ) ;
#32 = AXIS2_PLACEMENT_3D ( 'NONE', #282, #109, #1 ) ;
#33 =( LENGTH_UNIT ( ) NAMED_UNIT ( * ) SI_UNIT ( .MILLI., .METRE. ) );
#34 = FACE_OUTER_BOUND ( 'NONE', #193, .T. ) ;
#35 = EDGE_LOOP ( 'NONE', ( #98, #12 ) ) ;
#36 = ORIENTED_EDGE ( 'NONE', *, *, #206, .F. ) ;
#37 = EDGE_CURVE ( 'NONE', #261, #278, #315, .T. ) ;
#38 = EDGE_LOOP ( 'NONE', ( #353, #214 ) ) ;
#39 = DIRECTION ( 'NONE',  ( -0.0000000000000000000, -0.0000000000000000000, 1.000000000000000000 ) ) ;
#40 = EDGE_CURVE ( 'NONE', #243, #307, #223, .T. ) ;
#41 = DIRECTION ( 'NONE',  ( -0.0000000000000000000, -0.0000000000000000000, 1.000000000000000000 ) ) ;
#42 = AXIS2_PLACEMENT_3D ( 'NONE', #117, #8, #354 ) ;
#43 = CARTESIAN_POINT ( 'NONE',  ( 12.24999999999998934, 0.0000000000000000000, -41.00000000000000711 ) ) ;
#44 = ORIENTED_EDGE ( 'NONE', *, *, #225, .T. ) ;
#45 = APPLICATION_CONTEXT ( 'automotive_design' ) ;
#46 = CARTESIAN_POINT ( 'NONE',  ( 0.0000000000000000000, 0.0000000000000000000, 68.53254827717243813 ) ) ;
#47 = ADVANCED_FACE ( 'NONE', ( #91 ), #289, .T. ) ;
#48 = ORIENTED_EDGE ( 'NONE', *, *, #365, .T. ) ;
#49 = DIRECTION ( 'NONE',  ( -0.0000000000000000000, -0.0000000000000000000, 1.000000000000000000 ) ) ;
#50 = AXIS2_PLACEMENT_3D ( 'NONE', #134, #219, #13 ) ;
#51 = UNCERTAINTY_MEASURE_WITH_UNIT (LENGTH_MEASURE( 1.000000000000000082E-05 ), #308, 'distance_accuracy_value', 'NONE');
#52 = CARTESIAN_POINT ( 'NONE',  ( -25.00000000000001421, 3.061616997868384620E-15, -40.00000000000000711 ) ) ;
#53 = DIRECTION ( 'NONE',  ( -0.0000000000000000000, -0.0000000000000000000, 1.000000000000000000 ) ) ;
#54 = ADVANCED_FACE ( 'NONE', ( #232 ), #96, .T. ) ;
#55 = LINE ( 'NONE', #227, #283 ) ;
#56 = STYLED_ITEM ( 'NONE', ( #209 ), #86 ) ;
#57 =( GEOMETRIC_REPRESENTATION_CONTEXT ( 3 ) GLOBAL_UNCERTAINTY_ASSIGNED_CONTEXT ( ( #348 ) ) GLOBAL_UNIT_ASSIGNED_CONTEXT ( ( #286, #118, #260 ) ) REPRESENTATION_CONTEXT ( 'NONE', 'WORKASPACE' ) );
#58 = CARTESIAN_POINT ( 'NONE',  ( -9.249999999999980460, 1.132798289211299529E-15, 40.99999999999999289 ) ) ;
#59 = EDGE_CURVE ( 'NONE', #7, #328, #329, .T. ) ;
#60 = ORIENTED_EDGE ( 'NONE', *, *, #248, .T. ) ;
#61 = DIRECTION ( 'NONE',  ( 1.000000000000000000, 0.0000000000000000000, 0.0000000000000000000 ) ) ;
#62 = CIRCLE ( 'NONE', #166, 12.24999999999998934 ) ;
#63 = AXIS2_PLACEMENT_3D ( 'NONE', #266, #357, #94 ) ;
#64 = CIRCLE ( 'NONE', #361, 12.24999999999999112 ) ;
#65 = DIRECTION ( 'NONE',  ( 1.000000000000000000, 0.0000000000000000000, 0.0000000000000000000 ) ) ;
#66 = CARTESIAN_POINT ( 'NONE',  ( 0.0000000000000000000, 0.0000000000000000000, -41.00000000000000711 ) ) ;
#67 = SURFACE_STYLE_FILL_AREA ( #153 ) ;
#68 = EDGE_LOOP ( 'NONE', ( #131, #178 ) ) ;
#69 = AXIS2_PLACEMENT_3D ( 'NONE', #80, #221, #341 ) ;
#70 = CARTESIAN_POINT ( 'NONE',  ( -25.00000000000000000, 3.061616997868383437E-15, 39.99999999999999289 ) ) ;
#71 = LINE ( 'NONE', #145, #156 ) ;
#72 = ORIENTED_EDGE ( 'NONE', *, *, #40, .T. ) ;
#73 = EDGE_CURVE ( 'NONE', #328, #330, #21, .T. ) ;
#74 = PLANE ( 'NONE',  #276 ) ;
#75 = CIRCLE ( 'NONE', #168, 25.00000000000001066 ) ;
#76 = PLANE ( 'NONE',  #137 ) ;
#77 = UNCERTAINTY_MEASURE_WITH_UNIT (LENGTH_MEASURE( 1.000000000000000082E-05 ), #33, 'distance_accuracy_value', 'NONE');
#78 = EDGE_LOOP ( 'NONE', ( #239, #369, #183, #36 ) ) ;
#79 = CARTESIAN_POINT ( 'NONE',  ( 0.0000000000000000000, 0.0000000000000000000, -41.00000000000000711 ) ) ;
#80 = CARTESIAN_POINT ( 'NONE',  ( 0.0000000000000000000, 12.24999999999998934, -41.00000000000000711 ) ) ;
#81 = CLOSED_SHELL ( 'NONE', ( #290, #371, #47, #54, #120, #218, #186, #82, #342, #189, #231, #169 ) ) ;
#82 = ADVANCED_FACE ( 'NONE', ( #34 ), #159, .T. ) ;
#83 = FACE_OUTER_BOUND ( 'NONE', #251, .T. ) ;
#84 = PLANE ( 'NONE',  #132 ) ;
#85 = CARTESIAN_POINT ( 'NONE',  ( 12.24999999999998579, 0.0000000000000000000, 68.53254827717243813 ) ) ;
#86 = MANIFOLD_SOLID_BREP ( 'Revolve1', #81 ) ;
#87 =( NAMED_UNIT ( * ) SI_UNIT ( $, .STERADIAN. ) SOLID_ANGLE_UNIT ( ) );
#88 = DIRECTION ( 'NONE',  ( -0.0000000000000000000, -0.0000000000000000000, 1.000000000000000000 ) ) ;
#89 = ORIENTED_EDGE ( 'NONE', *, *, #332, .F. ) ;
#90 = SURFACE_STYLE_USAGE ( .BOTH. , #262 ) ;
#91 = FACE_OUTER_BOUND ( 'NONE', #179, .T. ) ;
#92 = AXIS2_PLACEMENT_3D ( 'NONE', #370, #199, #24 ) ;
#93 = DIRECTION ( 'NONE',  ( 1.000000000000000000, 0.0000000000000000000, 0.0000000000000000000 ) ) ;
#94 = DIRECTION ( 'NONE',  ( 1.000000000000000000, 0.0000000000000000000, 0.0000000000000000000 ) ) ;
#95 = DIRECTION ( 'NONE',  ( -0.0000000000000000000, -0.0000000000000000000, 1.000000000000000000 ) ) ;
#96 = CYLINDRICAL_SURFACE ( 'NONE', #288, 25.00000000000000711 ) ;
#97 = DIRECTION ( 'NONE',  ( -1.000000000000000000, 0.0000000000000000000, -0.0000000000000000000 ) ) ;
#98 = ORIENTED_EDGE ( 'NONE', *, *, #37, .T. ) ;
#99 = DIRECTION ( 'NONE',  ( -0.0000000000000000000, -0.0000000000000000000, 1.000000000000000000 ) ) ;
#100 = EDGE_CURVE ( 'NONE', #135, #338, #191, .T. ) ;
#101 = CARTESIAN_POINT ( 'NONE',  ( 0.0000000000000000000, 25.00000000000000000, 39.99999999999999289 ) ) ;
#102 = VERTEX_POINT ( 'NONE', #43 ) ;
#103 = CYLINDRICAL_SURFACE ( 'NONE', #188, 12.24999999999998579 ) ;
#104 = PRESENTATION_LAYER_ASSIGNMENT (  '', '', ( #56 ) ) ;
#105 = SURFACE_STYLE_USAGE ( .BOTH. , #190 ) ;
#106 = CIRCLE ( 'NONE', #113, 9.249999999999980460 ) ;
#107 = ORIENTED_EDGE ( 'NONE', *, *, #150, .T. ) ;
#108 = CARTESIAN_POINT ( 'NONE',  ( 0.0000000000000000000, 0.0000000000000000000, 40.99999999999999289 ) ) ;
#109 = DIRECTION ( 'NONE',  ( -0.0000000000000000000, -0.0000000000000000000, 1.000000000000000000 ) ) ;
#110 = CARTESIAN_POINT ( 'NONE',  ( 0.0000000000000000000, 0.0000000000000000000, 39.99999999999999289 ) ) ;
#111 = AXIS2_PLACEMENT_3D ( 'NONE', #303, #41, #158 ) ;
#112 = CIRCLE ( 'NONE', #4, 12.25000000000000178 ) ;
#113 = AXIS2_PLACEMENT_3D ( 'NONE', #108, #317, #314 ) ;
#114 = DIRECTION ( 'NONE',  ( 0.0000000000000000000, 0.0000000000000000000, -1.000000000000000000 ) ) ;
#115 = LINE ( 'NONE', #85, #316 ) ;
#116 = AXIS2_PLACEMENT_3D ( 'NONE', #257, #177, #5 ) ;
#117 = CARTESIAN_POINT ( 'NONE',  ( 0.0000000000000000000, 0.0000000000000000000, -40.00000000000000711 ) ) ;
#118 =( NAMED_UNIT ( * ) PLANE_ANGLE_UNIT ( ) SI_UNIT ( $, .RADIAN. ) );
#119 = CARTESIAN_POINT ( 'NONE',  ( 9.249999999999991118, 0.0000000000000000000, -41.00000000000000711 ) ) ;
#120 = ADVANCED_FACE ( 'NONE', ( #339, #161 ), #76, .F. ) ;
#121 = ORIENTED_EDGE ( 'NONE', *, *, #37, .F. ) ;
#122 = CIRCLE ( 'NONE', #242, 12.24999999999998934 ) ;
#123 = DIRECTION ( 'NONE',  ( 1.000000000000000000, 0.0000000000000000000, 0.0000000000000000000 ) ) ;
#124 = ORIENTED_EDGE ( 'NONE', *, *, #301, .F. ) ;
#125 = ORIENTED_EDGE ( 'NONE', *, *, #146, .F. ) ;
#126 = APPLICATION_CONTEXT ( 'automotive_design' ) ;
#127 = EDGE_CURVE ( 'NONE', #307, #163, #215, .T. ) ;
#128 = EDGE_LOOP ( 'NONE', ( #44, #310 ) ) ;
#129 = LINE ( 'NONE', #331, #228 ) ;
#130 = VECTOR ( 'NONE', #184, 1000.000000000000000 ) ;
#131 = ORIENTED_EDGE ( 'NONE', *, *, #318, .F. ) ;
#132 = AXIS2_PLACEMENT_3D ( 'NONE', #197, #114, #311 ) ;
#133 = ORIENTED_EDGE ( 'NONE', *, *, #368, .T. ) ;
#134 = CARTESIAN_POINT ( 'NONE',  ( 0.0000000000000000000, 0.0000000000000000000, -41.00000000000000711 ) ) ;
#135 = VERTEX_POINT ( 'NONE', #272 ) ;
#136 = CARTESIAN_POINT ( 'NONE',  ( -12.24999999999998579, 1.500192328955506157E-15, 68.53254827717243813 ) ) ;
#137 = AXIS2_PLACEMENT_3D ( 'NONE', #101, #138, #97 ) ;
#138 = DIRECTION ( 'NONE',  ( 0.0000000000000000000, 0.0000000000000000000, -1.000000000000000000 ) ) ;
#139 = STYLED_ITEM ( 'NONE', ( #174 ), #298 ) ;
#140 = ORIENTED_EDGE ( 'NONE', *, *, #225, .F. ) ;
#141 = CARTESIAN_POINT ( 'NONE',  ( 0.0000000000000000000, 0.0000000000000000000, 39.99999999999999289 ) ) ;
#142 = CARTESIAN_POINT ( 'NONE',  ( -12.24999999999998046, 1.500192328955505565E-15, 40.99999999999999289 ) ) ;
#143 = CARTESIAN_POINT ( 'NONE',  ( 12.25000000000000178, 0.0000000000000000000, -40.00000000000000711 ) ) ;
#144 = CIRCLE ( 'NONE', #229, 25.00000000000000000 ) ;
#145 = CARTESIAN_POINT ( 'NONE',  ( -12.24999999999999645, 1.500192328955507340E-15, 68.53254827717243813 ) ) ;
#146 = EDGE_CURVE ( 'NONE', #7, #165, #349, .T. ) ;
#147 = APPLICATION_PROTOCOL_DEFINITION ( 'draft international standard', 'automotive_design', 1998, #45 ) ;
#148 = EDGE_LOOP ( 'NONE', ( #48, #133 ) ) ;
#149 =( GEOMETRIC_REPRESENTATION_CONTEXT ( 3 ) GLOBAL_UNCERTAINTY_ASSIGNED_CONTEXT ( ( #51 ) ) GLOBAL_UNIT_ASSIGNED_CONTEXT ( ( #308, #162, #363 ) ) REPRESENTATION_CONTEXT ( 'NONE', 'WORKASPACE' ) );
#150 = EDGE_CURVE ( 'NONE', #102, #261, #129, .T. ) ;
#151 = ORIENTED_EDGE ( 'NONE', *, *, #293, .F. ) ;
#152 = PRODUCT_DEFINITION_CONTEXT ( 'detailed design', #126, 'design' ) ;
#153 = FILL_AREA_STYLE ('',( #29 ) ) ;
#154 = EDGE_LOOP ( 'NONE', ( #302, #6 ) ) ;
#155 = CARTESIAN_POINT ( 'NONE',  ( -12.24999999999998934, 1.500192328955506748E-15, -41.00000000000000711 ) ) ;
#156 = VECTOR ( 'NONE', #373, 1000.000000000000000 ) ;
#157 = ORIENTED_EDGE ( 'NONE', *, *, #59, .F. ) ;
#158 = DIRECTION ( 'NONE',  ( 1.000000000000000000, 0.0000000000000000000, 0.0000000000000000000 ) ) ;
#159 = CYLINDRICAL_SURFACE ( 'NONE', #111, 12.24999999999999645 ) ;
#160 = ORIENTED_EDGE ( 'NONE', *, *, #318, .T. ) ;
#161 = FACE_OUTER_BOUND ( 'NONE', #128, .T. ) ;
#162 =( NAMED_UNIT ( * ) PLANE_ANGLE_UNIT ( ) SI_UNIT ( $, .RADIAN. ) );
#163 = VERTEX_POINT ( 'NONE', #70 ) ;
#164 = DIRECTION ( 'NONE',  ( 1.000000000000000000, 0.0000000000000000000, 0.0000000000000000000 ) ) ;
#165 = VERTEX_POINT ( 'NONE', #309 ) ;
#166 = AXIS2_PLACEMENT_3D ( 'NONE', #66, #234, #61 ) ;
#167 = DIRECTION ( 'NONE',  ( -0.0000000000000000000, -0.0000000000000000000, 1.000000000000000000 ) ) ;
#168 = AXIS2_PLACEMENT_3D ( 'NONE', #253, #167, #254 ) ;
#169 = ADVANCED_FACE ( 'NONE', ( #17 ), #103, .T. ) ;
#170 = DIRECTION ( 'NONE',  ( -0.0000000000000000000, -0.0000000000000000000, 1.000000000000000000 ) ) ;
#171 = FACE_OUTER_BOUND ( 'NONE', #78, .T. ) ;
#172 = DIRECTION ( 'NONE',  ( -0.0000000000000000000, -0.0000000000000000000, 1.000000000000000000 ) ) ;
#173 = FACE_OUTER_BOUND ( 'NONE', #148, .T. ) ;
#174 = PRESENTATION_STYLE_ASSIGNMENT (( #90 ) ) ;
#175 = DIRECTION ( 'NONE',  ( 1.000000000000000000, 0.0000000000000000000, 0.0000000000000000000 ) ) ;
#176 = CARTESIAN_POINT ( 'NONE',  ( 0.0000000000000000000, 0.0000000000000000000, -40.00000000000000711 ) ) ;
#177 = DIRECTION ( 'NONE',  ( -0.0000000000000000000, -0.0000000000000000000, 1.000000000000000000 ) ) ;
#178 = ORIENTED_EDGE ( 'NONE', *, *, #31, .F. ) ;
#179 = EDGE_LOOP ( 'NONE', ( #160, #267, #121, #269 ) ) ;
#180 = ORIENTED_EDGE ( 'NONE', *, *, #355, .T. ) ;
#181 = CIRCLE ( 'NONE', #297, 12.24999999999999112 ) ;
#182 = AXIS2_PLACEMENT_3D ( 'NONE', #141, #170, #347 ) ;
#183 = ORIENTED_EDGE ( 'NONE', *, *, #301, .T. ) ;
#184 = DIRECTION ( 'NONE',  ( -0.0000000000000000000, -0.0000000000000000000, 1.000000000000000000 ) ) ;
#185 = CARTESIAN_POINT ( 'NONE',  ( 0.0000000000000000000, 0.0000000000000000000, 39.99999999999999289 ) ) ;
#186 = ADVANCED_FACE ( 'NONE', ( #304, #245 ), #74, .F. ) ;
#187 = DIRECTION ( 'NONE',  ( 1.000000000000000000, 0.0000000000000000000, 0.0000000000000000000 ) ) ;
#188 = AXIS2_PLACEMENT_3D ( 'NONE', #46, #359, #187 ) ;
#189 = ADVANCED_FACE ( 'NONE', ( #300 ), #275, .F. ) ;
#190 = SURFACE_SIDE_STYLE ('',( #336 ) ) ;
#191 = LINE ( 'NONE', #136, #130 ) ;
#192 = EDGE_CURVE ( 'NONE', #362, #135, #64, .T. ) ;
#193 = EDGE_LOOP ( 'NONE', ( #235, #299, #107, #151 ) ) ;
#194 = CARTESIAN_POINT ( 'NONE',  ( 12.24999999999999112, 0.0000000000000000000, 39.99999999999999289 ) ) ;
#195 = EDGE_CURVE ( 'NONE', #19, #278, #71, .T. ) ;
#196 = DIRECTION ( 'NONE',  ( -0.0000000000000000000, -0.0000000000000000000, 1.000000000000000000 ) ) ;
#197 = CARTESIAN_POINT ( 'NONE',  ( 0.0000000000000000000, 12.24999999999998046, 40.99999999999999289 ) ) ;
#198 = CARTESIAN_POINT ( 'NONE',  ( -9.249999999999985789, 1.132798289211299923E-15, 68.53254827717243813 ) ) ;
#199 = DIRECTION ( 'NONE',  ( -0.0000000000000000000, -0.0000000000000000000, 1.000000000000000000 ) ) ;
#200 = CARTESIAN_POINT ( 'NONE',  ( 0.0000000000000000000, 0.0000000000000000000, 0.0000000000000000000 ) ) ;
#201 = CARTESIAN_POINT ( 'NONE',  ( 0.0000000000000000000, 0.0000000000000000000, 40.99999999999999289 ) ) ;
#202 = EDGE_LOOP ( 'NONE', ( #340, #125, #292, #296 ) ) ;
#203 = ORIENTED_EDGE ( 'NONE', *, *, #365, .F. ) ;
#204 = CARTESIAN_POINT ( 'NONE',  ( 0.0000000000000000000, 0.0000000000000000000, 40.99999999999999289 ) ) ;
#205 = DIRECTION ( 'NONE',  ( -0.0000000000000000000, -0.0000000000000000000, 1.000000000000000000 ) ) ;
#206 = EDGE_CURVE ( 'NONE', #163, #220, #271, .T. ) ;
#207 = CARTESIAN_POINT ( 'NONE',  ( 0.0000000000000000000, 0.0000000000000000000, 40.99999999999999289 ) ) ;
#208 = DIRECTION ( 'NONE',  ( 1.000000000000000000, 0.0000000000000000000, 0.0000000000000000000 ) ) ;
#209 = PRESENTATION_STYLE_ASSIGNMENT (( #105 ) ) ;
#210 = VECTOR ( 'NONE', #240, 1000.000000000000000 ) ;
#211 = AXIS2_PLACEMENT_3D ( 'NONE', #204, #95, #123 ) ;
#212 = ORIENTED_EDGE ( 'NONE', *, *, #332, .T. ) ;
#213 = DIRECTION ( 'NONE',  ( 1.000000000000000000, 0.0000000000000000000, 0.0000000000000000000 ) ) ;
#214 = ORIENTED_EDGE ( 'NONE', *, *, #248, .F. ) ;
#215 = LINE ( 'NONE', #247, #210 ) ;
#216 = DIRECTION ( 'NONE',  ( 0.0000000000000000000, -0.0000000000000000000, 1.000000000000000000 ) ) ;
#217 = CIRCLE ( 'NONE', #249, 9.249999999999991118 ) ;
#218 = ADVANCED_FACE ( 'NONE', ( #171 ), #372, .T. ) ;
#219 = DIRECTION ( 'NONE',  ( -0.0000000000000000000, -0.0000000000000000000, 1.000000000000000000 ) ) ;
#220 = VERTEX_POINT ( 'NONE', #250 ) ;
#221 = DIRECTION ( 'NONE',  ( 0.0000000000000000000, -0.0000000000000000000, 1.000000000000000000 ) ) ;
#222 = PLANE ( 'NONE',  #69 ) ;
#223 = CIRCLE ( 'NONE', #241, 25.00000000000001066 ) ;
#224 = DIRECTION ( 'NONE',  ( -0.0000000000000000000, -0.0000000000000000000, 1.000000000000000000 ) ) ;
#225 = EDGE_CURVE ( 'NONE', #220, #163, #144, .T. ) ;
#226 = CYLINDRICAL_SURFACE ( 'NONE', #92, 12.24999999999998579 ) ;
#227 = CARTESIAN_POINT ( 'NONE',  ( 25.00000000000000711, 0.0000000000000000000, 68.53254827717243813 ) ) ;
#228 = VECTOR ( 'NONE', #360, 1000.000000000000000 ) ;
#229 = AXIS2_PLACEMENT_3D ( 'NONE', #110, #53, #26 ) ;
#230 = SHAPE_DEFINITION_REPRESENTATION ( #327, #298 ) ;
#231 = ADVANCED_FACE ( 'NONE', ( #313, #173 ), #84, .F. ) ;
#232 = FACE_OUTER_BOUND ( 'NONE', #244, .T. ) ;
#233 = DIRECTION ( 'NONE',  ( 1.000000000000000000, 0.0000000000000000000, 0.0000000000000000000 ) ) ;
#234 = DIRECTION ( 'NONE',  ( -0.0000000000000000000, -0.0000000000000000000, 1.000000000000000000 ) ) ;
#235 = ORIENTED_EDGE ( 'NONE', *, *, #195, .F. ) ;
#236 = VECTOR ( 'NONE', #88, 1000.000000000000000 ) ;
#237 = EDGE_CURVE ( 'NONE', #165, #330, #255, .T. ) ;
#238 = CARTESIAN_POINT ( 'NONE',  ( 0.0000000000000000000, 0.0000000000000000000, 68.53254827717243813 ) ) ;
#239 = ORIENTED_EDGE ( 'NONE', *, *, #127, .F. ) ;
#240 = DIRECTION ( 'NONE',  ( -0.0000000000000000000, -0.0000000000000000000, 1.000000000000000000 ) ) ;
#241 = AXIS2_PLACEMENT_3D ( 'NONE', #176, #10, #65 ) ;
#242 = AXIS2_PLACEMENT_3D ( 'NONE', #284, #224, #281 ) ;
#243 = VERTEX_POINT ( 'NONE', #25 ) ;
#244 = EDGE_LOOP ( 'NONE', ( #72, #319, #140, #124 ) ) ;
#245 = FACE_BOUND ( 'NONE', #35, .T. ) ;
#246 = ORIENTED_EDGE ( 'NONE', *, *, #100, .T. ) ;
#247 = CARTESIAN_POINT ( 'NONE',  ( -25.00000000000000711, 3.061616997868383831E-15, 68.53254827717243813 ) ) ;
#248 = EDGE_CURVE ( 'NONE', #330, #328, #106, .T. ) ;
#249 = AXIS2_PLACEMENT_3D ( 'NONE', #79, #196, #343 ) ;
#250 = CARTESIAN_POINT ( 'NONE',  ( 25.00000000000000000, 0.0000000000000000000, 39.99999999999999289 ) ) ;
#251 = EDGE_LOOP ( 'NONE', ( #23, #246, #203, #89 ) ) ;
#252 = DIRECTION ( 'NONE',  ( 1.000000000000000000, 0.0000000000000000000, 0.0000000000000000000 ) ) ;
#253 = CARTESIAN_POINT ( 'NONE',  ( 0.0000000000000000000, 0.0000000000000000000, -40.00000000000000711 ) ) ;
#254 = DIRECTION ( 'NONE',  ( 1.000000000000000000, 0.0000000000000000000, 0.0000000000000000000 ) ) ;
#255 = LINE ( 'NONE', #198, #367 ) ;
#256 = PRODUCT_CONTEXT ( 'NONE', #45, 'mechanical' ) ;
#257 = CARTESIAN_POINT ( 'NONE',  ( 0.0000000000000000000, 0.0000000000000000000, 68.53254827717243813 ) ) ;
#258 = PRESENTATION_LAYER_ASSIGNMENT (  '', '', ( #139 ) ) ;
#259 = ORIENTED_EDGE ( 'NONE', *, *, #192, .F. ) ;
#260 =( NAMED_UNIT ( * ) SI_UNIT ( $, .STERADIAN. ) SOLID_ANGLE_UNIT ( ) );
#261 = VERTEX_POINT ( 'NONE', #143 ) ;
#262 = SURFACE_SIDE_STYLE ('',( #67 ) ) ;
#263 = ORIENTED_EDGE ( 'NONE', *, *, #355, .F. ) ;
#264 = DIRECTION ( 'NONE',  ( 1.000000000000000000, 0.0000000000000000000, 0.0000000000000000000 ) ) ;
#265 = AXIS2_PLACEMENT_3D ( 'NONE', #20, #39, #268 ) ;
#266 = CARTESIAN_POINT ( 'NONE',  ( 0.0000000000000000000, 0.0000000000000000000, 68.53254827717243813 ) ) ;
#267 = ORIENTED_EDGE ( 'NONE', *, *, #195, .T. ) ;
#268 = DIRECTION ( 'NONE',  ( 1.000000000000000000, 0.0000000000000000000, 0.0000000000000000000 ) ) ;
#269 = ORIENTED_EDGE ( 'NONE', *, *, #150, .F. ) ;
#270 = FILL_AREA_STYLE_COLOUR ( '', #16 ) ;
#271 = CIRCLE ( 'NONE', #182, 25.00000000000000000 ) ;
#272 = CARTESIAN_POINT ( 'NONE',  ( -12.24999999999999112, 1.500192328955506748E-15, 39.99999999999999289 ) ) ;
#273 = ORIENTED_EDGE ( 'NONE', *, *, #368, .F. ) ;
#274 = ORIENTED_EDGE ( 'NONE', *, *, #22, .T. ) ;
#275 = CYLINDRICAL_SURFACE ( 'NONE', #265, 9.249999999999985789 ) ;
#276 = AXIS2_PLACEMENT_3D ( 'NONE', #364, #216, #164 ) ;
#277 = CIRCLE ( 'NONE', #356, 12.24999999999998046 ) ;
#278 = VERTEX_POINT ( 'NONE', #279 ) ;
#279 = CARTESIAN_POINT ( 'NONE',  ( -12.25000000000000178, 1.500192328955507734E-15, -40.00000000000000711 ) ) ;
#280 = EDGE_CURVE ( 'NONE', #307, #243, #75, .T. ) ;
#281 = DIRECTION ( 'NONE',  ( 1.000000000000000000, 0.0000000000000000000, 0.0000000000000000000 ) ) ;
#282 = CARTESIAN_POINT ( 'NONE',  ( 0.0000000000000000000, 0.0000000000000000000, 68.53254827717243813 ) ) ;
#283 = VECTOR ( 'NONE', #172, 1000.000000000000000 ) ;
#284 = CARTESIAN_POINT ( 'NONE',  ( 0.0000000000000000000, 0.0000000000000000000, -41.00000000000000711 ) ) ;
#285 = FACE_OUTER_BOUND ( 'NONE', #68, .T. ) ;
#286 =( LENGTH_UNIT ( ) NAMED_UNIT ( * ) SI_UNIT ( .MILLI., .METRE. ) );
#287 = ORIENTED_EDGE ( 'NONE', *, *, #146, .T. ) ;
#288 = AXIS2_PLACEMENT_3D ( 'NONE', #238, #358, #208 ) ;
#289 = CYLINDRICAL_SURFACE ( 'NONE', #63, 12.24999999999999645 ) ;
#290 = ADVANCED_FACE ( 'NONE', ( #83 ), #226, .T. ) ;
#291 =( NAMED_UNIT ( * ) PLANE_ANGLE_UNIT ( ) SI_UNIT ( $, .RADIAN. ) );
#292 = ORIENTED_EDGE ( 'NONE', *, *, #59, .T. ) ;
#293 = EDGE_CURVE ( 'NONE', #278, #261, #112, .T. ) ;
#294 = ORIENTED_EDGE ( 'NONE', *, *, #22, .F. ) ;
#295 = DIRECTION ( 'NONE',  ( 0.0000000000000000000, 0.0000000000000000000, 1.000000000000000000 ) ) ;
#296 = ORIENTED_EDGE ( 'NONE', *, *, #73, .T. ) ;
#297 = AXIS2_PLACEMENT_3D ( 'NONE', #321, #205, #264 ) ;
#298 = ADVANCED_BREP_SHAPE_REPRESENTATION ( '40BB0926-3F4C-4D4F-B2F2-A70A73FC3EB7', ( #86, #374 ), #350 ) ;
#299 = ORIENTED_EDGE ( 'NONE', *, *, #31, .T. ) ;
#300 = FACE_OUTER_BOUND ( 'NONE', #202, .T. ) ;
#301 = EDGE_CURVE ( 'NONE', #243, #220, #55, .T. ) ;
#302 = ORIENTED_EDGE ( 'NONE', *, *, #40, .F. ) ;
#303 = CARTESIAN_POINT ( 'NONE',  ( 0.0000000000000000000, 0.0000000000000000000, 68.53254827717243813 ) ) ;
#304 = FACE_OUTER_BOUND ( 'NONE', #154, .T. ) ;
#305 = AXIS2_PLACEMENT_3D ( 'NONE', #201, #30, #175 ) ;
#306 = PRODUCT_DEFINITION_FORMATION_WITH_SPECIFIED_SOURCE ( 'ANY', '', #322, .NOT_KNOWN. ) ;
#307 = VERTEX_POINT ( 'NONE', #52 ) ;
#308 =( LENGTH_UNIT ( ) NAMED_UNIT ( * ) SI_UNIT ( .MILLI., .METRE. ) );
#309 = CARTESIAN_POINT ( 'NONE',  ( -9.249999999999992895, 1.132798289211300712E-15, -41.00000000000000711 ) ) ;
#310 = ORIENTED_EDGE ( 'NONE', *, *, #206, .T. ) ;
#311 = DIRECTION ( 'NONE',  ( -1.000000000000000000, 0.0000000000000000000, -0.0000000000000000000 ) ) ;
#312 = DIRECTION ( 'NONE',  ( -0.0000000000000000000, -0.0000000000000000000, 1.000000000000000000 ) ) ;
#313 = FACE_BOUND ( 'NONE', #38, .T. ) ;
#314 = DIRECTION ( 'NONE',  ( 1.000000000000000000, 0.0000000000000000000, 0.0000000000000000000 ) ) ;
#315 = CIRCLE ( 'NONE', #42, 12.25000000000000178 ) ;
#316 = VECTOR ( 'NONE', #49, 1000.000000000000000 ) ;
#317 = DIRECTION ( 'NONE',  ( -0.0000000000000000000, -0.0000000000000000000, 1.000000000000000000 ) ) ;
#318 = EDGE_CURVE ( 'NONE', #102, #19, #122, .T. ) ;
#319 = ORIENTED_EDGE ( 'NONE', *, *, #127, .T. ) ;
#320 = APPLICATION_PROTOCOL_DEFINITION ( 'draft international standard', 'automotive_design', 1998, #126 ) ;
#321 = CARTESIAN_POINT ( 'NONE',  ( 0.0000000000000000000, 0.0000000000000000000, 39.99999999999999289 ) ) ;
#322 = PRODUCT ( '40BB0926-3F4C-4D4F-B2F2-A70A73FC3EB7', '40BB0926-3F4C-4D4F-B2F2-A70A73FC3EB7', '', ( #256 ) ) ;
#323 = COLOUR_RGB ( '',0.2509803921568627416, 0.2509803921568627416, 0.2509803921568627416 ) ;
#324 = CIRCLE ( 'NONE', #211, 12.24999999999998046 ) ;
#325 = VERTEX_POINT ( 'NONE', #27 ) ;
#326 = PRODUCT_DEFINITION ( 'UNKNOWN', '', #306, #152 ) ;
#327 = PRODUCT_DEFINITION_SHAPE ( 'NONE', 'NONE',  #326 ) ;
#328 = VERTEX_POINT ( 'NONE', #2 ) ;
#329 = LINE ( 'NONE', #11, #236 ) ;
#330 = VERTEX_POINT ( 'NONE', #58 ) ;
#331 = CARTESIAN_POINT ( 'NONE',  ( 12.24999999999999645, 0.0000000000000000000, 68.53254827717243813 ) ) ;
#332 = EDGE_CURVE ( 'NONE', #362, #325, #115, .T. ) ;
#333 = MECHANICAL_DESIGN_GEOMETRIC_PRESENTATION_REPRESENTATION (  '', ( #139 ), #57 ) ;
#334 = EDGE_LOOP ( 'NONE', ( #337, #274, #212, #273 ) ) ;
#335 = EDGE_LOOP ( 'NONE', ( #263, #14, #60, #157 ) ) ;
#336 = SURFACE_STYLE_FILL_AREA ( #15 ) ;
#337 = ORIENTED_EDGE ( 'NONE', *, *, #100, .F. ) ;
#338 = VERTEX_POINT ( 'NONE', #142 ) ;
#339 = FACE_BOUND ( 'NONE', #366, .T. ) ;
#340 = ORIENTED_EDGE ( 'NONE', *, *, #237, .F. ) ;
#341 = DIRECTION ( 'NONE',  ( 1.000000000000000000, 0.0000000000000000000, 0.0000000000000000000 ) ) ;
#342 = ADVANCED_FACE ( 'NONE', ( #285, #28 ), #222, .F. ) ;
#343 = DIRECTION ( 'NONE',  ( 1.000000000000000000, 0.0000000000000000000, 0.0000000000000000000 ) ) ;
#344 = PRODUCT_RELATED_PRODUCT_CATEGORY ( 'part', '', ( #322 ) ) ;
#345 = DIRECTION ( 'NONE',  ( -0.0000000000000000000, -0.0000000000000000000, 1.000000000000000000 ) ) ;
#346 = CARTESIAN_POINT ( 'NONE',  ( 0.0000000000000000000, 0.0000000000000000000, -40.00000000000000711 ) ) ;
#347 = DIRECTION ( 'NONE',  ( 1.000000000000000000, 0.0000000000000000000, 0.0000000000000000000 ) ) ;
#348 = UNCERTAINTY_MEASURE_WITH_UNIT (LENGTH_MEASURE( 1.000000000000000082E-05 ), #286, 'distance_accuracy_value', 'NONE');
#349 = CIRCLE ( 'NONE', #50, 9.249999999999991118 ) ;
#350 =( GEOMETRIC_REPRESENTATION_CONTEXT ( 3 ) GLOBAL_UNCERTAINTY_ASSIGNED_CONTEXT ( ( #77 ) ) GLOBAL_UNIT_ASSIGNED_CONTEXT ( ( #33, #291, #87 ) ) REPRESENTATION_CONTEXT ( 'NONE', 'WORKASPACE' ) );
#351 = DIRECTION ( 'NONE',  ( -0.0000000000000000000, -0.0000000000000000000, 1.000000000000000000 ) ) ;
#352 = CYLINDRICAL_SURFACE ( 'NONE', #116, 9.249999999999985789 ) ;
#353 = ORIENTED_EDGE ( 'NONE', *, *, #73, .F. ) ;
#354 = DIRECTION ( 'NONE',  ( 1.000000000000000000, 0.0000000000000000000, 0.0000000000000000000 ) ) ;
#355 = EDGE_CURVE ( 'NONE', #165, #7, #217, .T. ) ;
#356 = AXIS2_PLACEMENT_3D ( 'NONE', #207, #351, #93 ) ;
#357 = DIRECTION ( 'NONE',  ( -0.0000000000000000000, -0.0000000000000000000, 1.000000000000000000 ) ) ;
#358 = DIRECTION ( 'NONE',  ( -0.0000000000000000000, -0.0000000000000000000, 1.000000000000000000 ) ) ;
#359 = DIRECTION ( 'NONE',  ( -0.0000000000000000000, -0.0000000000000000000, 1.000000000000000000 ) ) ;
#360 = DIRECTION ( 'NONE',  ( -0.0000000000000000000, -0.0000000000000000000, 1.000000000000000000 ) ) ;
#361 = AXIS2_PLACEMENT_3D ( 'NONE', #185, #99, #213 ) ;
#362 = VERTEX_POINT ( 'NONE', #194 ) ;
#363 =( NAMED_UNIT ( * ) SI_UNIT ( $, .STERADIAN. ) SOLID_ANGLE_UNIT ( ) );
#364 = CARTESIAN_POINT ( 'NONE',  ( 0.0000000000000000000, 25.00000000000001066, -40.00000000000000711 ) ) ;
#365 = EDGE_CURVE ( 'NONE', #325, #338, #277, .T. ) ;
#366 = EDGE_LOOP ( 'NONE', ( #259, #294 ) ) ;
#367 = VECTOR ( 'NONE', #345, 1000.000000000000000 ) ;
#368 = EDGE_CURVE ( 'NONE', #338, #325, #324, .T. ) ;
#369 = ORIENTED_EDGE ( 'NONE', *, *, #280, .T. ) ;
#370 = CARTESIAN_POINT ( 'NONE',  ( 0.0000000000000000000, 0.0000000000000000000, 68.53254827717243813 ) ) ;
#371 = ADVANCED_FACE ( 'NONE', ( #9 ), #352, .F. ) ;
#372 = CYLINDRICAL_SURFACE ( 'NONE', #32, 25.00000000000000711 ) ;
#373 = DIRECTION ( 'NONE',  ( -0.0000000000000000000, -0.0000000000000000000, 1.000000000000000000 ) ) ;
#374 = AXIS2_PLACEMENT_3D ( 'NONE', #200, #295, #233 ) ;
ENDSEC;
END-ISO-10303-21;
