ISO-10303-21;
HEADER;
FILE_DESCRIPTION (( 'STEP AP214' ),
    '1' );
FILE_NAME ('D6818515-9445-4656-ADCA-DCB42C54E14D.STEP',
    '2023-08-02T09:50:09',
    ( '' ),
    ( '' ),
    'SwSTEP 2.0',
    'SolidWorks 2022',
    '' );
FILE_SCHEMA (( 'AUTOMOTIVE_DESIGN' ));
ENDSEC;

DATA;
#1 = EDGE_LOOP ( 'NONE', ( #281, #294, #75, #11 ) ) ;
#2 = DIRECTION ( 'NONE',  ( -0.0000000000000000000, -0.0000000000000000000, 1.000000000000000000 ) ) ;
#3 = DIRECTION ( 'NONE',  ( 1.000000000000000000, 0.0000000000000000000, 0.0000000000000000000 ) ) ;
#4 = FACE_OUTER_BOUND ( 'NONE', #317, .T. ) ;
#5 = EDGE_CURVE ( 'NONE', #18, #348, #70, .T. ) ;
#6 = MECHANICAL_DESIGN_GEOMETRIC_PRESENTATION_REPRESENTATION (  '', ( #187 ), #181 ) ;
#7 =( GEOMETRIC_REPRESENTATION_CONTEXT ( 3 ) GLOBAL_UNCERTAINTY_ASSIGNED_CONTEXT ( ( #240 ) ) GLOBAL_UNIT_ASSIGNED_CONTEXT ( ( #29, #200, #76 ) ) REPRESENTATION_CONTEXT ( 'NONE', 'WORKASPACE' ) );
#8 = DIRECTION ( 'NONE',  ( 1.000000000000000000, 0.0000000000000000000, 0.0000000000000000000 ) ) ;
#9 = FACE_OUTER_BOUND ( 'NONE', #30, .T. ) ;
#10 = ADVANCED_BREP_SHAPE_REPRESENTATION ( 'D6818515-9445-4656-ADCA-DCB42C54E14D', ( #206, #154 ), #7 ) ;
#11 = ORIENTED_EDGE ( 'NONE', *, *, #185, .F. ) ;
#12 = EDGE_CURVE ( 'NONE', #18, #285, #62, .T. ) ;
#13 = DIRECTION ( 'NONE',  ( 1.000000000000000000, 0.0000000000000000000, 0.0000000000000000000 ) ) ;
#14 = LINE ( 'NONE', #96, #366 ) ;
#15 = SURFACE_STYLE_FILL_AREA ( #43 ) ;
#16 = DIRECTION ( 'NONE',  ( -0.0000000000000000000, -0.0000000000000000000, 1.000000000000000000 ) ) ;
#17 = CARTESIAN_POINT ( 'NONE',  ( 0.0000000000000000000, 0.0000000000000000000, -41.00000000000000711 ) ) ;
#18 = VERTEX_POINT ( 'NONE', #235 ) ;
#19 = ORIENTED_EDGE ( 'NONE', *, *, #39, .T. ) ;
#20 = DIRECTION ( 'NONE',  ( -0.0000000000000000000, -0.0000000000000000000, 1.000000000000000000 ) ) ;
#21 = ORIENTED_EDGE ( 'NONE', *, *, #320, .F. ) ;
#22 = CIRCLE ( 'NONE', #78, 12.25000000000000178 ) ;
#23 = CIRCLE ( 'NONE', #95, 12.25000000000000178 ) ;
#24 = CARTESIAN_POINT ( 'NONE',  ( 12.24999999999998579, 0.0000000000000000000, 68.53254827717243813 ) ) ;
#25 = ORIENTED_EDGE ( 'NONE', *, *, #119, .F. ) ;
#26 = DIRECTION ( 'NONE',  ( -0.0000000000000000000, -0.0000000000000000000, 1.000000000000000000 ) ) ;
#27 = ORIENTED_EDGE ( 'NONE', *, *, #324, .T. ) ;
#28 = ADVANCED_FACE ( 'NONE', ( #9 ), #90, .T. ) ;
#29 =( LENGTH_UNIT ( ) NAMED_UNIT ( * ) SI_UNIT ( .MILLI., .METRE. ) );
#30 = EDGE_LOOP ( 'NONE', ( #103, #93, #49, #205 ) ) ;
#31 = CIRCLE ( 'NONE', #291, 9.249999999999980460 ) ;
#32 = EDGE_LOOP ( 'NONE', ( #203, #232 ) ) ;
#33 = DIRECTION ( 'NONE',  ( -0.0000000000000000000, -0.0000000000000000000, 1.000000000000000000 ) ) ;
#34 = CLOSED_SHELL ( 'NONE', ( #97, #279, #53, #258, #163, #113, #86, #247, #251, #270, #301, #28 ) ) ;
#35 = SURFACE_STYLE_USAGE ( .BOTH. , #65 ) ;
#36 = DIRECTION ( 'NONE',  ( -0.0000000000000000000, -0.0000000000000000000, 1.000000000000000000 ) ) ;
#37 = EDGE_CURVE ( 'NONE', #342, #319, #354, .T. ) ;
#38 = DIRECTION ( 'NONE',  ( -0.0000000000000000000, -0.0000000000000000000, 1.000000000000000000 ) ) ;
#39 = EDGE_CURVE ( 'NONE', #80, #316, #31, .T. ) ;
#40 = CARTESIAN_POINT ( 'NONE',  ( 0.0000000000000000000, 0.0000000000000000000, 68.53254827717243813 ) ) ;
#41 = AXIS2_PLACEMENT_3D ( 'NONE', #161, #168, #250 ) ;
#42 = CARTESIAN_POINT ( 'NONE',  ( 0.0000000000000000000, 12.24999999999998934, -41.00000000000000711 ) ) ;
#43 = FILL_AREA_STYLE ('',( #264 ) ) ;
#44 = CARTESIAN_POINT ( 'NONE',  ( 12.24999999999998046, 0.0000000000000000000, 40.99999999999999289 ) ) ;
#45 = CYLINDRICAL_SURFACE ( 'NONE', #41, 25.00000000000000711 ) ;
#46 = VERTEX_POINT ( 'NONE', #183 ) ;
#47 = FACE_OUTER_BOUND ( 'NONE', #255, .T. ) ;
#48 = ORIENTED_EDGE ( 'NONE', *, *, #123, .F. ) ;
#49 = ORIENTED_EDGE ( 'NONE', *, *, #356, .T. ) ;
#50 = EDGE_CURVE ( 'NONE', #199, #289, #164, .T. ) ;
#51 = CARTESIAN_POINT ( 'NONE',  ( 12.24999999999999112, 0.0000000000000000000, 39.99999999999999289 ) ) ;
#52 = EDGE_LOOP ( 'NONE', ( #201, #77, #338, #177 ) ) ;
#53 = ADVANCED_FACE ( 'NONE', ( #186 ), #271, .T. ) ;
#54 = FACE_OUTER_BOUND ( 'NONE', #230, .T. ) ;
#55 = VERTEX_POINT ( 'NONE', #357 ) ;
#56 = EDGE_CURVE ( 'NONE', #261, #80, #153, .T. ) ;
#57 = EDGE_LOOP ( 'NONE', ( #141, #72 ) ) ;
#58 = SHAPE_DEFINITION_REPRESENTATION ( #135, #10 ) ;
#59 = CARTESIAN_POINT ( 'NONE',  ( 0.0000000000000000000, 0.0000000000000000000, 39.99999999999999289 ) ) ;
#60 = DIRECTION ( 'NONE',  ( 1.000000000000000000, 0.0000000000000000000, 0.0000000000000000000 ) ) ;
#61 = AXIS2_PLACEMENT_3D ( 'NONE', #244, #360, #304 ) ;
#62 = LINE ( 'NONE', #208, #333 ) ;
#63 = DIRECTION ( 'NONE',  ( -0.0000000000000000000, -0.0000000000000000000, 1.000000000000000000 ) ) ;
#64 = DIRECTION ( 'NONE',  ( 1.000000000000000000, 0.0000000000000000000, 0.0000000000000000000 ) ) ;
#65 = SURFACE_SIDE_STYLE ('',( #15 ) ) ;
#66 = CIRCLE ( 'NONE', #212, 12.24999999999999112 ) ;
#67 = PLANE ( 'NONE',  #321 ) ;
#68 = SURFACE_STYLE_USAGE ( .BOTH. , #282 ) ;
#69 = DIRECTION ( 'NONE',  ( 1.000000000000000000, 0.0000000000000000000, 0.0000000000000000000 ) ) ;
#70 = CIRCLE ( 'NONE', #191, 12.24999999999998934 ) ;
#71 = FACE_OUTER_BOUND ( 'NONE', #216, .T. ) ;
#72 = ORIENTED_EDGE ( 'NONE', *, *, #50, .F. ) ;
#73 = EDGE_CURVE ( 'NONE', #319, #342, #211, .T. ) ;
#74 = CARTESIAN_POINT ( 'NONE',  ( 25.00000000000000711, 0.0000000000000000000, 68.53254827717243813 ) ) ;
#75 = ORIENTED_EDGE ( 'NONE', *, *, #117, .F. ) ;
#76 =( NAMED_UNIT ( * ) SI_UNIT ( $, .STERADIAN. ) SOLID_ANGLE_UNIT ( ) );
#77 = ORIENTED_EDGE ( 'NONE', *, *, #210, .T. ) ;
#78 = AXIS2_PLACEMENT_3D ( 'NONE', #298, #302, #155 ) ;
#79 = LINE ( 'NONE', #24, #239 ) ;
#80 = VERTEX_POINT ( 'NONE', #156 ) ;
#81 = ORIENTED_EDGE ( 'NONE', *, *, #367, .T. ) ;
#82 = CARTESIAN_POINT ( 'NONE',  ( 0.0000000000000000000, 12.24999999999998046, 40.99999999999999289 ) ) ;
#83 = EDGE_LOOP ( 'NONE', ( #171, #341, #21, #112 ) ) ;
#84 = CARTESIAN_POINT ( 'NONE',  ( 0.0000000000000000000, 0.0000000000000000000, 68.53254827717243813 ) ) ;
#85 = CYLINDRICAL_SURFACE ( 'NONE', #197, 12.24999999999998579 ) ;
#86 = ADVANCED_FACE ( 'NONE', ( #4, #234 ), #266, .F. ) ;
#87 = CIRCLE ( 'NONE', #61, 9.249999999999991118 ) ;
#88 = VECTOR ( 'NONE', #63, 1000.000000000000000 ) ;
#89 = DIRECTION ( 'NONE',  ( -0.0000000000000000000, -0.0000000000000000000, 1.000000000000000000 ) ) ;
#90 = CYLINDRICAL_SURFACE ( 'NONE', #326, 12.24999999999998579 ) ;
#91 =( LENGTH_UNIT ( ) NAMED_UNIT ( * ) SI_UNIT ( .MILLI., .METRE. ) );
#92 = FACE_OUTER_BOUND ( 'NONE', #224, .T. ) ;
#93 = ORIENTED_EDGE ( 'NONE', *, *, #50, .T. ) ;
#94 = AXIS2_PLACEMENT_3D ( 'NONE', #120, #180, #8 ) ;
#95 = AXIS2_PLACEMENT_3D ( 'NONE', #347, #315, #104 ) ;
#96 = CARTESIAN_POINT ( 'NONE',  ( -9.249999999999985789, 1.132798289211299923E-15, 68.53254827717243813 ) ) ;
#97 = ADVANCED_FACE ( 'NONE', ( #355 ), #85, .T. ) ;
#98 = LINE ( 'NONE', #219, #238 ) ;
#99 = DIRECTION ( 'NONE',  ( -0.0000000000000000000, -0.0000000000000000000, 1.000000000000000000 ) ) ;
#100 = CIRCLE ( 'NONE', #252, 25.00000000000001066 ) ;
#101 = FACE_BOUND ( 'NONE', #57, .T. ) ;
#102 = DIRECTION ( 'NONE',  ( 1.000000000000000000, 0.0000000000000000000, 0.0000000000000000000 ) ) ;
#103 = ORIENTED_EDGE ( 'NONE', *, *, #109, .F. ) ;
#104 = DIRECTION ( 'NONE',  ( 1.000000000000000000, 0.0000000000000000000, 0.0000000000000000000 ) ) ;
#105 = EDGE_LOOP ( 'NONE', ( #283, #139, #287, #143 ) ) ;
#106 = CARTESIAN_POINT ( 'NONE',  ( 0.0000000000000000000, 0.0000000000000000000, 40.99999999999999289 ) ) ;
#107 = VERTEX_POINT ( 'NONE', #213 ) ;
#108 = AXIS2_PLACEMENT_3D ( 'NONE', #162, #363, #69 ) ;
#109 = EDGE_CURVE ( 'NONE', #199, #107, #329, .T. ) ;
#110 = ORIENTED_EDGE ( 'NONE', *, *, #39, .F. ) ;
#111 = DIRECTION ( 'NONE',  ( -0.0000000000000000000, -0.0000000000000000000, 1.000000000000000000 ) ) ;
#112 = ORIENTED_EDGE ( 'NONE', *, *, #356, .F. ) ;
#113 = ADVANCED_FACE ( 'NONE', ( #184 ), #323, .T. ) ;
#114 = DIRECTION ( 'NONE',  ( -0.0000000000000000000, -0.0000000000000000000, 1.000000000000000000 ) ) ;
#115 = AXIS2_PLACEMENT_3D ( 'NONE', #150, #262, #223 ) ;
#116 = DIRECTION ( 'NONE',  ( 1.000000000000000000, 0.0000000000000000000, 0.0000000000000000000 ) ) ;
#117 = EDGE_CURVE ( 'NONE', #263, #285, #22, .T. ) ;
#118 = CARTESIAN_POINT ( 'NONE',  ( -12.24999999999998579, 1.500192328955506157E-15, 68.53254827717243813 ) ) ;
#119 = EDGE_CURVE ( 'NONE', #259, #55, #100, .T. ) ;
#120 = CARTESIAN_POINT ( 'NONE',  ( 0.0000000000000000000, 25.00000000000001066, -40.00000000000000711 ) ) ;
#121 = CIRCLE ( 'NONE', #176, 9.249999999999991118 ) ;
#122 = CARTESIAN_POINT ( 'NONE',  ( 0.0000000000000000000, 0.0000000000000000000, 68.53254827717243813 ) ) ;
#123 = EDGE_CURVE ( 'NONE', #261, #46, #87, .T. ) ;
#124 = UNCERTAINTY_MEASURE_WITH_UNIT (LENGTH_MEASURE( 1.000000000000000082E-05 ), #246, 'distance_accuracy_value', 'NONE');
#125 = CARTESIAN_POINT ( 'NONE',  ( -12.24999999999999112, 1.500192328955506748E-15, 39.99999999999999289 ) ) ;
#126 = APPLICATION_PROTOCOL_DEFINITION ( 'draft international standard', 'automotive_design', 1998, #280 ) ;
#127 = FILL_AREA_STYLE ('',( #218 ) ) ;
#128 = PRESENTATION_LAYER_ASSIGNMENT (  '', '', ( #187 ) ) ;
#129 = AXIS2_PLACEMENT_3D ( 'NONE', #140, #292, #368 ) ;
#130 = PRESENTATION_STYLE_ASSIGNMENT (( #68 ) ) ;
#131 =( NAMED_UNIT ( * ) SI_UNIT ( $, .STERADIAN. ) SOLID_ANGLE_UNIT ( ) );
#132 = EDGE_LOOP ( 'NONE', ( #147, #48, #334, #19 ) ) ;
#133 = DIRECTION ( 'NONE',  ( 0.0000000000000000000, -0.0000000000000000000, 1.000000000000000000 ) ) ;
#134 = ORIENTED_EDGE ( 'NONE', *, *, #56, .F. ) ;
#135 = PRODUCT_DEFINITION_SHAPE ( 'NONE', 'NONE',  #362 ) ;
#136 = AXIS2_PLACEMENT_3D ( 'NONE', #122, #350, #241 ) ;
#137 = LINE ( 'NONE', #74, #349 ) ;
#138 = AXIS2_PLACEMENT_3D ( 'NONE', #318, #26, #102 ) ;
#139 = ORIENTED_EDGE ( 'NONE', *, *, #5, .T. ) ;
#140 = CARTESIAN_POINT ( 'NONE',  ( 0.0000000000000000000, 0.0000000000000000000, -41.00000000000000711 ) ) ;
#141 = ORIENTED_EDGE ( 'NONE', *, *, #288, .F. ) ;
#142 = CARTESIAN_POINT ( 'NONE',  ( 0.0000000000000000000, 0.0000000000000000000, 39.99999999999999289 ) ) ;
#143 = ORIENTED_EDGE ( 'NONE', *, *, #367, .F. ) ;
#144 = EDGE_CURVE ( 'NONE', #55, #319, #166, .T. ) ;
#145 = DIRECTION ( 'NONE',  ( 0.0000000000000000000, 0.0000000000000000000, -1.000000000000000000 ) ) ;
#146 = CIRCLE ( 'NONE', #108, 25.00000000000001066 ) ;
#147 = ORIENTED_EDGE ( 'NONE', *, *, #149, .F. ) ;
#148 = PRESENTATION_LAYER_ASSIGNMENT (  '', '', ( #165 ) ) ;
#149 = EDGE_CURVE ( 'NONE', #46, #316, #14, .T. ) ;
#150 = CARTESIAN_POINT ( 'NONE',  ( 0.0000000000000000000, 0.0000000000000000000, 40.99999999999999289 ) ) ;
#151 = ORIENTED_EDGE ( 'NONE', *, *, #37, .T. ) ;
#152 = DIRECTION ( 'NONE',  ( -0.0000000000000000000, -0.0000000000000000000, 1.000000000000000000 ) ) ;
#153 = LINE ( 'NONE', #303, #361 ) ;
#154 = AXIS2_PLACEMENT_3D ( 'NONE', #204, #268, #3 ) ;
#155 = DIRECTION ( 'NONE',  ( 1.000000000000000000, 0.0000000000000000000, 0.0000000000000000000 ) ) ;
#156 = CARTESIAN_POINT ( 'NONE',  ( 9.249999999999980460, 0.0000000000000000000, 40.99999999999999289 ) ) ;
#157 = CARTESIAN_POINT ( 'NONE',  ( 0.0000000000000000000, 0.0000000000000000000, 40.99999999999999289 ) ) ;
#158 = AXIS2_PLACEMENT_3D ( 'NONE', #220, #99, #337 ) ;
#159 = CARTESIAN_POINT ( 'NONE',  ( 25.00000000000001066, 0.0000000000000000000, -40.00000000000000711 ) ) ;
#160 = PRESENTATION_STYLE_ASSIGNMENT (( #35 ) ) ;
#161 = CARTESIAN_POINT ( 'NONE',  ( 0.0000000000000000000, 0.0000000000000000000, 68.53254827717243813 ) ) ;
#162 = CARTESIAN_POINT ( 'NONE',  ( 0.0000000000000000000, 0.0000000000000000000, -40.00000000000000711 ) ) ;
#163 = ADVANCED_FACE ( 'NONE', ( #101, #358 ), #305, .F. ) ;
#164 = CIRCLE ( 'NONE', #169, 12.24999999999999112 ) ;
#165 = STYLED_ITEM ( 'NONE', ( #160 ), #10 ) ;
#166 = LINE ( 'NONE', #278, #297 ) ;
#167 = ORIENTED_EDGE ( 'NONE', *, *, #210, .F. ) ;
#168 = DIRECTION ( 'NONE',  ( -0.0000000000000000000, -0.0000000000000000000, 1.000000000000000000 ) ) ;
#169 = AXIS2_PLACEMENT_3D ( 'NONE', #300, #33, #64 ) ;
#170 = DIRECTION ( 'NONE',  ( -0.0000000000000000000, -0.0000000000000000000, 1.000000000000000000 ) ) ;
#171 = ORIENTED_EDGE ( 'NONE', *, *, #288, .T. ) ;
#172 = CARTESIAN_POINT ( 'NONE',  ( 12.25000000000000178, 0.0000000000000000000, -40.00000000000000711 ) ) ;
#173 = CARTESIAN_POINT ( 'NONE',  ( -25.00000000000000000, 3.061616997868383437E-15, 39.99999999999999289 ) ) ;
#174 = VERTEX_POINT ( 'NONE', #44 ) ;
#175 = PLANE ( 'NONE',  #207 ) ;
#176 = AXIS2_PLACEMENT_3D ( 'NONE', #17, #364, #248 ) ;
#177 = ORIENTED_EDGE ( 'NONE', *, *, #73, .F. ) ;
#178 = ORIENTED_EDGE ( 'NONE', *, *, #119, .T. ) ;
#179 = DIRECTION ( 'NONE',  ( 1.000000000000000000, 0.0000000000000000000, 0.0000000000000000000 ) ) ;
#180 = DIRECTION ( 'NONE',  ( 0.0000000000000000000, -0.0000000000000000000, 1.000000000000000000 ) ) ;
#181 =( GEOMETRIC_REPRESENTATION_CONTEXT ( 3 ) GLOBAL_UNCERTAINTY_ASSIGNED_CONTEXT ( ( #124 ) ) GLOBAL_UNIT_ASSIGNED_CONTEXT ( ( #246, #194, #131 ) ) REPRESENTATION_CONTEXT ( 'NONE', 'WORKASPACE' ) );
#182 = CIRCLE ( 'NONE', #267, 9.249999999999980460 ) ;
#183 = CARTESIAN_POINT ( 'NONE',  ( -9.249999999999992895, 1.132798289211300712E-15, -41.00000000000000711 ) ) ;
#184 = FACE_OUTER_BOUND ( 'NONE', #52, .T. ) ;
#185 = EDGE_CURVE ( 'NONE', #348, #263, #98, .T. ) ;
#186 = FACE_OUTER_BOUND ( 'NONE', #1, .T. ) ;
#187 = STYLED_ITEM ( 'NONE', ( #130 ), #206 ) ;
#188 = CIRCLE ( 'NONE', #129, 12.24999999999998934 ) ;
#189 = DIRECTION ( 'NONE',  ( -1.000000000000000000, 0.0000000000000000000, -0.0000000000000000000 ) ) ;
#190 = CARTESIAN_POINT ( 'NONE',  ( 0.0000000000000000000, 25.00000000000000000, 39.99999999999999289 ) ) ;
#191 = AXIS2_PLACEMENT_3D ( 'NONE', #295, #89, #327 ) ;
#192 = FACE_BOUND ( 'NONE', #32, .T. ) ;
#193 = ORIENTED_EDGE ( 'NONE', *, *, #320, .T. ) ;
#194 =( NAMED_UNIT ( * ) PLANE_ANGLE_UNIT ( ) SI_UNIT ( $, .RADIAN. ) );
#195 = DIRECTION ( 'NONE',  ( -0.0000000000000000000, -0.0000000000000000000, 1.000000000000000000 ) ) ;
#196 = EDGE_LOOP ( 'NONE', ( #151, #322 ) ) ;
#197 = AXIS2_PLACEMENT_3D ( 'NONE', #84, #38, #116 ) ;
#198 = CARTESIAN_POINT ( 'NONE',  ( 12.24999999999998934, 0.0000000000000000000, -41.00000000000000711 ) ) ;
#199 = VERTEX_POINT ( 'NONE', #125 ) ;
#200 =( NAMED_UNIT ( * ) PLANE_ANGLE_UNIT ( ) SI_UNIT ( $, .RADIAN. ) );
#201 = ORIENTED_EDGE ( 'NONE', *, *, #144, .F. ) ;
#202 = CYLINDRICAL_SURFACE ( 'NONE', #233, 9.249999999999985789 ) ;
#203 = ORIENTED_EDGE ( 'NONE', *, *, #123, .T. ) ;
#204 = CARTESIAN_POINT ( 'NONE',  ( 0.0000000000000000000, 0.0000000000000000000, 0.0000000000000000000 ) ) ;
#205 = ORIENTED_EDGE ( 'NONE', *, *, #324, .F. ) ;
#206 = MANIFOLD_SOLID_BREP ( 'Revolve1', #34 ) ;
#207 = AXIS2_PLACEMENT_3D ( 'NONE', #82, #145, #229 ) ;
#208 = CARTESIAN_POINT ( 'NONE',  ( -12.24999999999999645, 1.500192328955507340E-15, 68.53254827717243813 ) ) ;
#209 = CARTESIAN_POINT ( 'NONE',  ( 0.0000000000000000000, 0.0000000000000000000, 68.53254827717243813 ) ) ;
#210 = EDGE_CURVE ( 'NONE', #55, #259, #146, .T. ) ;
#211 = CIRCLE ( 'NONE', #313, 25.00000000000000000 ) ;
#212 = AXIS2_PLACEMENT_3D ( 'NONE', #142, #170, #254 ) ;
#213 = CARTESIAN_POINT ( 'NONE',  ( -12.24999999999998046, 1.500192328955505565E-15, 40.99999999999999289 ) ) ;
#214 = DIRECTION ( 'NONE',  ( -0.0000000000000000000, -0.0000000000000000000, 1.000000000000000000 ) ) ;
#215 = DIRECTION ( 'NONE',  ( 0.0000000000000000000, 0.0000000000000000000, -1.000000000000000000 ) ) ;
#216 = EDGE_LOOP ( 'NONE', ( #290, #359 ) ) ;
#217 = EDGE_CURVE ( 'NONE', #46, #261, #121, .T. ) ;
#218 = FILL_AREA_STYLE_COLOUR ( '', #272 ) ;
#219 = CARTESIAN_POINT ( 'NONE',  ( 12.24999999999999645, 0.0000000000000000000, 68.53254827717243813 ) ) ;
#220 = CARTESIAN_POINT ( 'NONE',  ( 0.0000000000000000000, 0.0000000000000000000, 68.53254827717243813 ) ) ;
#221 = MECHANICAL_DESIGN_GEOMETRIC_PRESENTATION_REPRESENTATION (  '', ( #165 ), #308 ) ;
#222 = DIRECTION ( 'NONE',  ( -0.0000000000000000000, -0.0000000000000000000, 1.000000000000000000 ) ) ;
#223 = DIRECTION ( 'NONE',  ( 1.000000000000000000, 0.0000000000000000000, 0.0000000000000000000 ) ) ;
#224 = EDGE_LOOP ( 'NONE', ( #178, #371, #373, #293 ) ) ;
#225 = EDGE_LOOP ( 'NONE', ( #345, #81 ) ) ;
#226 = AXIS2_PLACEMENT_3D ( 'NONE', #209, #325, #60 ) ;
#227 = DIRECTION ( 'NONE',  ( -0.0000000000000000000, -0.0000000000000000000, 1.000000000000000000 ) ) ;
#228 = EDGE_LOOP ( 'NONE', ( #110, #312 ) ) ;
#229 = DIRECTION ( 'NONE',  ( -1.000000000000000000, 0.0000000000000000000, -0.0000000000000000000 ) ) ;
#230 = EDGE_LOOP ( 'NONE', ( #369, #257, #249, #134 ) ) ;
#231 = CYLINDRICAL_SURFACE ( 'NONE', #138, 9.249999999999985789 ) ;
#232 = ORIENTED_EDGE ( 'NONE', *, *, #217, .T. ) ;
#233 = AXIS2_PLACEMENT_3D ( 'NONE', #284, #111, #256 ) ;
#234 = FACE_BOUND ( 'NONE', #225, .T. ) ;
#235 = CARTESIAN_POINT ( 'NONE',  ( -12.24999999999998934, 1.500192328955506748E-15, -41.00000000000000711 ) ) ;
#236 = DIRECTION ( 'NONE',  ( -0.0000000000000000000, -0.0000000000000000000, 1.000000000000000000 ) ) ;
#237 = DIRECTION ( 'NONE',  ( -0.0000000000000000000, -0.0000000000000000000, 1.000000000000000000 ) ) ;
#238 = VECTOR ( 'NONE', #222, 1000.000000000000000 ) ;
#239 = VECTOR ( 'NONE', #2, 1000.000000000000000 ) ;
#240 = UNCERTAINTY_MEASURE_WITH_UNIT (LENGTH_MEASURE( 1.000000000000000082E-05 ), #29, 'distance_accuracy_value', 'NONE');
#241 = DIRECTION ( 'NONE',  ( 1.000000000000000000, 0.0000000000000000000, 0.0000000000000000000 ) ) ;
#242 = DIRECTION ( 'NONE',  ( -0.0000000000000000000, -0.0000000000000000000, 1.000000000000000000 ) ) ;
#243 = UNCERTAINTY_MEASURE_WITH_UNIT (LENGTH_MEASURE( 1.000000000000000082E-05 ), #91, 'distance_accuracy_value', 'NONE');
#244 = CARTESIAN_POINT ( 'NONE',  ( 0.0000000000000000000, 0.0000000000000000000, -41.00000000000000711 ) ) ;
#245 = APPLICATION_CONTEXT ( 'automotive_design' ) ;
#246 =( LENGTH_UNIT ( ) NAMED_UNIT ( * ) SI_UNIT ( .MILLI., .METRE. ) );
#247 = ADVANCED_FACE ( 'NONE', ( #332 ), #339, .T. ) ;
#248 = DIRECTION ( 'NONE',  ( 1.000000000000000000, 0.0000000000000000000, 0.0000000000000000000 ) ) ;
#249 = ORIENTED_EDGE ( 'NONE', *, *, #351, .T. ) ;
#250 = DIRECTION ( 'NONE',  ( 1.000000000000000000, 0.0000000000000000000, 0.0000000000000000000 ) ) ;
#251 = ADVANCED_FACE ( 'NONE', ( #71, #192 ), #67, .F. ) ;
#252 = AXIS2_PLACEMENT_3D ( 'NONE', #269, #236, #365 ) ;
#253 = AXIS2_PLACEMENT_3D ( 'NONE', #340, #195, #311 ) ;
#254 = DIRECTION ( 'NONE',  ( 1.000000000000000000, 0.0000000000000000000, 0.0000000000000000000 ) ) ;
#255 = EDGE_LOOP ( 'NONE', ( #193, #27 ) ) ;
#256 = DIRECTION ( 'NONE',  ( 1.000000000000000000, 0.0000000000000000000, 0.0000000000000000000 ) ) ;
#257 = ORIENTED_EDGE ( 'NONE', *, *, #149, .T. ) ;
#258 = ADVANCED_FACE ( 'NONE', ( #92 ), #45, .T. ) ;
#259 = VERTEX_POINT ( 'NONE', #159 ) ;
#260 = APPLICATION_PROTOCOL_DEFINITION ( 'draft international standard', 'automotive_design', 1998, #245 ) ;
#261 = VERTEX_POINT ( 'NONE', #274 ) ;
#262 = DIRECTION ( 'NONE',  ( -0.0000000000000000000, -0.0000000000000000000, 1.000000000000000000 ) ) ;
#263 = VERTEX_POINT ( 'NONE', #172 ) ;
#264 = FILL_AREA_STYLE_COLOUR ( '', #314 ) ;
#265 = DIRECTION ( 'NONE',  ( 1.000000000000000000, 0.0000000000000000000, 0.0000000000000000000 ) ) ;
#266 = PLANE ( 'NONE',  #94 ) ;
#267 = AXIS2_PLACEMENT_3D ( 'NONE', #106, #227, #286 ) ;
#268 = DIRECTION ( 'NONE',  ( 0.0000000000000000000, 0.0000000000000000000, 1.000000000000000000 ) ) ;
#269 = CARTESIAN_POINT ( 'NONE',  ( 0.0000000000000000000, 0.0000000000000000000, -40.00000000000000711 ) ) ;
#270 = ADVANCED_FACE ( 'NONE', ( #346 ), #202, .F. ) ;
#271 = CYLINDRICAL_SURFACE ( 'NONE', #136, 12.24999999999999645 ) ;
#272 = COLOUR_RGB ( '',0.2117647058823529382, 0.05882352941176470507, 0.2431372549019607809 ) ;
#273 = PRODUCT_DEFINITION_FORMATION_WITH_SPECIFIED_SOURCE ( 'ANY', '', #336, .NOT_KNOWN. ) ;
#274 = CARTESIAN_POINT ( 'NONE',  ( 9.249999999999991118, 0.0000000000000000000, -41.00000000000000711 ) ) ;
#275 = EDGE_CURVE ( 'NONE', #259, #342, #137, .T. ) ;
#276 = PRODUCT_CONTEXT ( 'NONE', #245, 'mechanical' ) ;
#277 =( NAMED_UNIT ( * ) SI_UNIT ( $, .STERADIAN. ) SOLID_ANGLE_UNIT ( ) );
#278 = CARTESIAN_POINT ( 'NONE',  ( -25.00000000000000711, 3.061616997868383831E-15, 68.53254827717243813 ) ) ;
#279 = ADVANCED_FACE ( 'NONE', ( #54 ), #231, .F. ) ;
#280 = APPLICATION_CONTEXT ( 'automotive_design' ) ;
#281 = ORIENTED_EDGE ( 'NONE', *, *, #299, .T. ) ;
#282 = SURFACE_SIDE_STYLE ('',( #335 ) ) ;
#283 = ORIENTED_EDGE ( 'NONE', *, *, #12, .F. ) ;
#284 = CARTESIAN_POINT ( 'NONE',  ( 0.0000000000000000000, 0.0000000000000000000, 68.53254827717243813 ) ) ;
#285 = VERTEX_POINT ( 'NONE', #344 ) ;
#286 = DIRECTION ( 'NONE',  ( 1.000000000000000000, 0.0000000000000000000, 0.0000000000000000000 ) ) ;
#287 = ORIENTED_EDGE ( 'NONE', *, *, #185, .T. ) ;
#288 = EDGE_CURVE ( 'NONE', #289, #199, #66, .T. ) ;
#289 = VERTEX_POINT ( 'NONE', #51 ) ;
#290 = ORIENTED_EDGE ( 'NONE', *, *, #299, .F. ) ;
#291 = AXIS2_PLACEMENT_3D ( 'NONE', #157, #237, #179 ) ;
#292 = DIRECTION ( 'NONE',  ( -0.0000000000000000000, -0.0000000000000000000, 1.000000000000000000 ) ) ;
#293 = ORIENTED_EDGE ( 'NONE', *, *, #275, .F. ) ;
#294 = ORIENTED_EDGE ( 'NONE', *, *, #12, .T. ) ;
#295 = CARTESIAN_POINT ( 'NONE',  ( 0.0000000000000000000, 0.0000000000000000000, -41.00000000000000711 ) ) ;
#296 =( NAMED_UNIT ( * ) PLANE_ANGLE_UNIT ( ) SI_UNIT ( $, .RADIAN. ) );
#297 = VECTOR ( 'NONE', #242, 1000.000000000000000 ) ;
#298 = CARTESIAN_POINT ( 'NONE',  ( 0.0000000000000000000, 0.0000000000000000000, -40.00000000000000711 ) ) ;
#299 = EDGE_CURVE ( 'NONE', #348, #18, #188, .T. ) ;
#300 = CARTESIAN_POINT ( 'NONE',  ( 0.0000000000000000000, 0.0000000000000000000, 39.99999999999999289 ) ) ;
#301 = ADVANCED_FACE ( 'NONE', ( #370, #47 ), #175, .F. ) ;
#302 = DIRECTION ( 'NONE',  ( -0.0000000000000000000, -0.0000000000000000000, 1.000000000000000000 ) ) ;
#303 = CARTESIAN_POINT ( 'NONE',  ( 9.249999999999985789, 0.0000000000000000000, 68.53254827717243813 ) ) ;
#304 = DIRECTION ( 'NONE',  ( 1.000000000000000000, 0.0000000000000000000, 0.0000000000000000000 ) ) ;
#305 = PLANE ( 'NONE',  #306 ) ;
#306 = AXIS2_PLACEMENT_3D ( 'NONE', #190, #215, #189 ) ;
#307 = PRODUCT_RELATED_PRODUCT_CATEGORY ( 'part', '', ( #336 ) ) ;
#308 =( GEOMETRIC_REPRESENTATION_CONTEXT ( 3 ) GLOBAL_UNCERTAINTY_ASSIGNED_CONTEXT ( ( #243 ) ) GLOBAL_UNIT_ASSIGNED_CONTEXT ( ( #91, #296, #277 ) ) REPRESENTATION_CONTEXT ( 'NONE', 'WORKASPACE' ) );
#309 = DIRECTION ( 'NONE',  ( 1.000000000000000000, 0.0000000000000000000, 0.0000000000000000000 ) ) ;
#310 = CARTESIAN_POINT ( 'NONE',  ( -9.249999999999980460, 1.132798289211299529E-15, 40.99999999999999289 ) ) ;
#311 = DIRECTION ( 'NONE',  ( 1.000000000000000000, 0.0000000000000000000, 0.0000000000000000000 ) ) ;
#312 = ORIENTED_EDGE ( 'NONE', *, *, #351, .F. ) ;
#313 = AXIS2_PLACEMENT_3D ( 'NONE', #353, #152, #265 ) ;
#314 = COLOUR_RGB ( '',0.2117647058823529382, 0.05882352941176470507, 0.2431372549019607809 ) ;
#315 = DIRECTION ( 'NONE',  ( -0.0000000000000000000, -0.0000000000000000000, 1.000000000000000000 ) ) ;
#316 = VERTEX_POINT ( 'NONE', #310 ) ;
#317 = EDGE_LOOP ( 'NONE', ( #25, #167 ) ) ;
#318 = CARTESIAN_POINT ( 'NONE',  ( 0.0000000000000000000, 0.0000000000000000000, 68.53254827717243813 ) ) ;
#319 = VERTEX_POINT ( 'NONE', #173 ) ;
#320 = EDGE_CURVE ( 'NONE', #174, #107, #328, .T. ) ;
#321 = AXIS2_PLACEMENT_3D ( 'NONE', #42, #133, #309 ) ;
#322 = ORIENTED_EDGE ( 'NONE', *, *, #73, .T. ) ;
#323 = CYLINDRICAL_SURFACE ( 'NONE', #226, 25.00000000000000711 ) ;
#324 = EDGE_CURVE ( 'NONE', #107, #174, #343, .T. ) ;
#325 = DIRECTION ( 'NONE',  ( -0.0000000000000000000, -0.0000000000000000000, 1.000000000000000000 ) ) ;
#326 = AXIS2_PLACEMENT_3D ( 'NONE', #40, #114, #331 ) ;
#327 = DIRECTION ( 'NONE',  ( 1.000000000000000000, 0.0000000000000000000, 0.0000000000000000000 ) ) ;
#328 = CIRCLE ( 'NONE', #115, 12.24999999999998046 ) ;
#329 = LINE ( 'NONE', #118, #88 ) ;
#330 = PRODUCT_DEFINITION_CONTEXT ( 'detailed design', #280, 'design' ) ;
#331 = DIRECTION ( 'NONE',  ( 1.000000000000000000, 0.0000000000000000000, 0.0000000000000000000 ) ) ;
#332 = FACE_OUTER_BOUND ( 'NONE', #105, .T. ) ;
#333 = VECTOR ( 'NONE', #352, 1000.000000000000000 ) ;
#334 = ORIENTED_EDGE ( 'NONE', *, *, #56, .T. ) ;
#335 = SURFACE_STYLE_FILL_AREA ( #127 ) ;
#336 = PRODUCT ( 'D6818515-9445-4656-ADCA-DCB42C54E14D', 'D6818515-9445-4656-ADCA-DCB42C54E14D', '', ( #276 ) ) ;
#337 = DIRECTION ( 'NONE',  ( 1.000000000000000000, 0.0000000000000000000, 0.0000000000000000000 ) ) ;
#338 = ORIENTED_EDGE ( 'NONE', *, *, #275, .T. ) ;
#339 = CYLINDRICAL_SURFACE ( 'NONE', #158, 12.24999999999999645 ) ;
#340 = CARTESIAN_POINT ( 'NONE',  ( 0.0000000000000000000, 0.0000000000000000000, 40.99999999999999289 ) ) ;
#341 = ORIENTED_EDGE ( 'NONE', *, *, #109, .T. ) ;
#342 = VERTEX_POINT ( 'NONE', #372 ) ;
#343 = CIRCLE ( 'NONE', #253, 12.24999999999998046 ) ;
#344 = CARTESIAN_POINT ( 'NONE',  ( -12.25000000000000178, 1.500192328955507734E-15, -40.00000000000000711 ) ) ;
#345 = ORIENTED_EDGE ( 'NONE', *, *, #117, .T. ) ;
#346 = FACE_OUTER_BOUND ( 'NONE', #132, .T. ) ;
#347 = CARTESIAN_POINT ( 'NONE',  ( 0.0000000000000000000, 0.0000000000000000000, -40.00000000000000711 ) ) ;
#348 = VERTEX_POINT ( 'NONE', #198 ) ;
#349 = VECTOR ( 'NONE', #20, 1000.000000000000000 ) ;
#350 = DIRECTION ( 'NONE',  ( -0.0000000000000000000, -0.0000000000000000000, 1.000000000000000000 ) ) ;
#351 = EDGE_CURVE ( 'NONE', #316, #80, #182, .T. ) ;
#352 = DIRECTION ( 'NONE',  ( -0.0000000000000000000, -0.0000000000000000000, 1.000000000000000000 ) ) ;
#353 = CARTESIAN_POINT ( 'NONE',  ( 0.0000000000000000000, 0.0000000000000000000, 39.99999999999999289 ) ) ;
#354 = CIRCLE ( 'NONE', #374, 25.00000000000000000 ) ;
#355 = FACE_OUTER_BOUND ( 'NONE', #83, .T. ) ;
#356 = EDGE_CURVE ( 'NONE', #289, #174, #79, .T. ) ;
#357 = CARTESIAN_POINT ( 'NONE',  ( -25.00000000000001421, 3.061616997868384620E-15, -40.00000000000000711 ) ) ;
#358 = FACE_OUTER_BOUND ( 'NONE', #196, .T. ) ;
#359 = ORIENTED_EDGE ( 'NONE', *, *, #5, .F. ) ;
#360 = DIRECTION ( 'NONE',  ( -0.0000000000000000000, -0.0000000000000000000, 1.000000000000000000 ) ) ;
#361 = VECTOR ( 'NONE', #36, 1000.000000000000000 ) ;
#362 = PRODUCT_DEFINITION ( 'UNKNOWN', '', #273, #330 ) ;
#363 = DIRECTION ( 'NONE',  ( -0.0000000000000000000, -0.0000000000000000000, 1.000000000000000000 ) ) ;
#364 = DIRECTION ( 'NONE',  ( -0.0000000000000000000, -0.0000000000000000000, 1.000000000000000000 ) ) ;
#365 = DIRECTION ( 'NONE',  ( 1.000000000000000000, 0.0000000000000000000, 0.0000000000000000000 ) ) ;
#366 = VECTOR ( 'NONE', #16, 1000.000000000000000 ) ;
#367 = EDGE_CURVE ( 'NONE', #285, #263, #23, .T. ) ;
#368 = DIRECTION ( 'NONE',  ( 1.000000000000000000, 0.0000000000000000000, 0.0000000000000000000 ) ) ;
#369 = ORIENTED_EDGE ( 'NONE', *, *, #217, .F. ) ;
#370 = FACE_BOUND ( 'NONE', #228, .T. ) ;
#371 = ORIENTED_EDGE ( 'NONE', *, *, #144, .T. ) ;
#372 = CARTESIAN_POINT ( 'NONE',  ( 25.00000000000000000, 0.0000000000000000000, 39.99999999999999289 ) ) ;
#373 = ORIENTED_EDGE ( 'NONE', *, *, #37, .F. ) ;
#374 = AXIS2_PLACEMENT_3D ( 'NONE', #59, #214, #13 ) ;
ENDSEC;
END-ISO-10303-21;
