ISO-10303-21;
HEADER;
FILE_DESCRIPTION (( 'STEP AP214' ),
    '1' );
FILE_NAME ('99ACE44D-701A-44B7-990F-3090FD6E7E1F.STEP',
    '2023-08-02T08:50:42',
    ( '' ),
    ( '' ),
    'SwSTEP 2.0',
    'SolidWorks 2022',
    '' );
FILE_SCHEMA (( 'AUTOMOTIVE_DESIGN' ));
ENDSEC;

DATA;
#1 = MECHANICAL_DESIGN_GEOMETRIC_PRESENTATION_REPRESENTATION (  '', ( #99 ), #147 ) ;
#2 = AXIS2_PLACEMENT_3D ( 'NONE', #122, #322, #298 ) ;
#3 = CARTESIAN_POINT ( 'NONE',  ( 10.25000000000000000, 0.0000000000000000000, -39.99999999999999289 ) ) ;
#4 = EDGE_CURVE ( 'NONE', #238, #161, #74, .T. ) ;
#5 = ORIENTED_EDGE ( 'NONE', *, *, #62, .F. ) ;
#6 = CARTESIAN_POINT ( 'NONE',  ( 0.0000000000000000000, 30.00000000000001066, -40.00000000000000711 ) ) ;
#7 = AXIS2_PLACEMENT_3D ( 'NONE', #197, #294, #211 ) ;
#8 = ORIENTED_EDGE ( 'NONE', *, *, #344, .F. ) ;
#9 = CARTESIAN_POINT ( 'NONE',  ( -10.25000000000000000, 1.255262969126037241E-15, -39.99999999999999289 ) ) ;
#10 = ORIENTED_EDGE ( 'NONE', *, *, #240, .F. ) ;
#11 = CARTESIAN_POINT ( 'NONE',  ( 0.0000000000000000000, 0.0000000000000000000, 42.24999999999999289 ) ) ;
#12 = EDGE_LOOP ( 'NONE', ( #280, #361, #301, #38 ) ) ;
#13 = VECTOR ( 'NONE', #293, 1000.000000000000000 ) ;
#14 = DIRECTION ( 'NONE',  ( -0.0000000000000000000, -0.0000000000000000000, 1.000000000000000000 ) ) ;
#15 = DIRECTION ( 'NONE',  ( 1.000000000000000000, 0.0000000000000000000, 0.0000000000000000000 ) ) ;
#16 = ORIENTED_EDGE ( 'NONE', *, *, #123, .F. ) ;
#17 = VERTEX_POINT ( 'NONE', #174 ) ;
#18 = EDGE_LOOP ( 'NONE', ( #44, #100 ) ) ;
#19 = CIRCLE ( 'NONE', #249, 30.00000000000000000 ) ;
#20 = CARTESIAN_POINT ( 'NONE',  ( 0.0000000000000000000, 0.0000000000000000000, 98.43369195224448731 ) ) ;
#21 = DIRECTION ( 'NONE',  ( 1.000000000000000000, 0.0000000000000000000, 0.0000000000000000000 ) ) ;
#22 = ORIENTED_EDGE ( 'NONE', *, *, #344, .T. ) ;
#23 = AXIS2_PLACEMENT_3D ( 'NONE', #342, #142, #21 ) ;
#24 = MECHANICAL_DESIGN_GEOMETRIC_PRESENTATION_REPRESENTATION (  '', ( #193 ), #179 ) ;
#25 = EDGE_CURVE ( 'NONE', #161, #238, #47, .T. ) ;
#26 = DIRECTION ( 'NONE',  ( 1.000000000000000000, 0.0000000000000000000, 0.0000000000000000000 ) ) ;
#27 = DIRECTION ( 'NONE',  ( 1.000000000000000000, 0.0000000000000000000, 0.0000000000000000000 ) ) ;
#28 = DIRECTION ( 'NONE',  ( 1.000000000000000000, 0.0000000000000000000, 0.0000000000000000000 ) ) ;
#29 = CARTESIAN_POINT ( 'NONE',  ( 10.25000000000000000, 0.0000000000000000000, 98.43369195224448731 ) ) ;
#30 = ORIENTED_EDGE ( 'NONE', *, *, #236, .F. ) ;
#31 = DIRECTION ( 'NONE',  ( -0.0000000000000000000, -0.0000000000000000000, 1.000000000000000000 ) ) ;
#32 = CARTESIAN_POINT ( 'NONE',  ( -10.24999999999998934, 1.255262969126035860E-15, 42.24999999999999289 ) ) ;
#33 = EDGE_CURVE ( 'NONE', #17, #206, #259, .T. ) ;
#34 = ORIENTED_EDGE ( 'NONE', *, *, #292, .F. ) ;
#35 = PRODUCT_RELATED_PRODUCT_CATEGORY ( 'part', '', ( #103 ) ) ;
#36 = AXIS2_PLACEMENT_3D ( 'NONE', #270, #56, #374 ) ;
#37 =( LENGTH_UNIT ( ) NAMED_UNIT ( * ) SI_UNIT ( .MILLI., .METRE. ) );
#38 = ORIENTED_EDGE ( 'NONE', *, *, #285, .F. ) ;
#39 = PRODUCT_CONTEXT ( 'NONE', #309, 'mechanical' ) ;
#40 = VERTEX_POINT ( 'NONE', #339 ) ;
#41 = PRODUCT_DEFINITION_SHAPE ( 'NONE', 'NONE',  #58 ) ;
#42 = EDGE_LOOP ( 'NONE', ( #136, #22, #102, #336 ) ) ;
#43 = SURFACE_STYLE_USAGE ( .BOTH. , #356 ) ;
#44 = ORIENTED_EDGE ( 'NONE', *, *, #359, .T. ) ;
#45 = ORIENTED_EDGE ( 'NONE', *, *, #372, .T. ) ;
#46 = LINE ( 'NONE', #166, #314 ) ;
#47 = CIRCLE ( 'NONE', #302, 7.249999999999990230 ) ;
#48 =( LENGTH_UNIT ( ) NAMED_UNIT ( * ) SI_UNIT ( .MILLI., .METRE. ) );
#49 = ADVANCED_FACE ( 'NONE', ( #289 ), #172, .T. ) ;
#50 = FACE_OUTER_BOUND ( 'NONE', #70, .T. ) ;
#51 = PLANE ( 'NONE',  #203 ) ;
#52 = AXIS2_PLACEMENT_3D ( 'NONE', #343, #146, #258 ) ;
#53 = CARTESIAN_POINT ( 'NONE',  ( 7.249999999999990230, 0.0000000000000000000, 42.24999999999999289 ) ) ;
#54 = CIRCLE ( 'NONE', #204, 10.24999999999998934 ) ;
#55 = CARTESIAN_POINT ( 'NONE',  ( 0.0000000000000000000, 0.0000000000000000000, 42.24999999999999289 ) ) ;
#56 = DIRECTION ( 'NONE',  ( -0.0000000000000000000, -0.0000000000000000000, 1.000000000000000000 ) ) ;
#57 = DIRECTION ( 'NONE',  ( -0.0000000000000000000, -0.0000000000000000000, 1.000000000000000000 ) ) ;
#58 = PRODUCT_DEFINITION ( 'UNKNOWN', '', #94, #265 ) ;
#59 = LINE ( 'NONE', #149, #114 ) ;
#60 = AXIS2_PLACEMENT_3D ( 'NONE', #177, #150, #63 ) ;
#61 = EDGE_LOOP ( 'NONE', ( #331, #68, #273, #30 ) ) ;
#62 = EDGE_CURVE ( 'NONE', #275, #159, #296, .T. ) ;
#63 = DIRECTION ( 'NONE',  ( 1.000000000000000000, 0.0000000000000000000, 0.0000000000000000000 ) ) ;
#64 = DIRECTION ( 'NONE',  ( -0.0000000000000000000, -0.0000000000000000000, 1.000000000000000000 ) ) ;
#65 = CARTESIAN_POINT ( 'NONE',  ( 0.0000000000000000000, 0.0000000000000000000, 98.43369195224448731 ) ) ;
#66 = PLANE ( 'NONE',  #272 ) ;
#67 = AXIS2_PLACEMENT_3D ( 'NONE', #287, #282, #144 ) ;
#68 = ORIENTED_EDGE ( 'NONE', *, *, #281, .T. ) ;
#69 = CARTESIAN_POINT ( 'NONE',  ( 0.0000000000000000000, 7.249999999999990230, 42.24999999999999289 ) ) ;
#70 = EDGE_LOOP ( 'NONE', ( #164, #188 ) ) ;
#71 =( LENGTH_UNIT ( ) NAMED_UNIT ( * ) SI_UNIT ( .MILLI., .METRE. ) );
#72 = ORIENTED_EDGE ( 'NONE', *, *, #359, .F. ) ;
#73 = ORIENTED_EDGE ( 'NONE', *, *, #372, .F. ) ;
#74 = CIRCLE ( 'NONE', #326, 7.249999999999990230 ) ;
#75 = ORIENTED_EDGE ( 'NONE', *, *, #271, .F. ) ;
#76 = CARTESIAN_POINT ( 'NONE',  ( 0.0000000000000000000, 10.25000000000000000, -42.25000000000000711 ) ) ;
#77 = DIRECTION ( 'NONE',  ( -0.0000000000000000000, -0.0000000000000000000, 1.000000000000000000 ) ) ;
#78 = CARTESIAN_POINT ( 'NONE',  ( 30.00000000000000000, 0.0000000000000000000, 39.99999999999999289 ) ) ;
#79 = CARTESIAN_POINT ( 'NONE',  ( 10.25000000000000000, 0.0000000000000000000, -42.25000000000002132 ) ) ;
#80 = ADVANCED_FACE ( 'NONE', ( #366 ), #320, .F. ) ;
#81 = CIRCLE ( 'NONE', #7, 10.25000000000000000 ) ;
#82 = COLOUR_RGB ( '',0.2509803921568627416, 0.2509803921568627416, 0.2509803921568627416 ) ;
#83 = CYLINDRICAL_SURFACE ( 'NONE', #67, 10.25000000000000000 ) ;
#84 = DIRECTION ( 'NONE',  ( -0.0000000000000000000, -0.0000000000000000000, 1.000000000000000000 ) ) ;
#85 = SURFACE_STYLE_USAGE ( .BOTH. , #316 ) ;
#86 = PRESENTATION_STYLE_ASSIGNMENT (( #85 ) ) ;
#87 = AXIS2_PLACEMENT_3D ( 'NONE', #260, #371, #111 ) ;
#88 = CYLINDRICAL_SURFACE ( 'NONE', #250, 10.24999999999998934 ) ;
#89 = CARTESIAN_POINT ( 'NONE',  ( 0.0000000000000000000, 0.0000000000000000000, 39.99999999999998579 ) ) ;
#90 = UNCERTAINTY_MEASURE_WITH_UNIT (LENGTH_MEASURE( 1.000000000000000082E-05 ), #37, 'distance_accuracy_value', 'NONE');
#91 = APPLICATION_CONTEXT ( 'automotive_design' ) ;
#92 = CARTESIAN_POINT ( 'NONE',  ( 30.00000000000000711, 0.0000000000000000000, 98.43369195224448731 ) ) ;
#93 = DIRECTION ( 'NONE',  ( 0.0000000000000000000, -0.0000000000000000000, 1.000000000000000000 ) ) ;
#94 = PRODUCT_DEFINITION_FORMATION_WITH_SPECIFIED_SOURCE ( 'ANY', '', #103, .NOT_KNOWN. ) ;
#95 = ADVANCED_FACE ( 'NONE', ( #318 ), #341, .T. ) ;
#96 = DIRECTION ( 'NONE',  ( 1.000000000000000000, 0.0000000000000000000, 0.0000000000000000000 ) ) ;
#97 = EDGE_LOOP ( 'NONE', ( #34, #106, #305, #311 ) ) ;
#98 = AXIS2_PLACEMENT_3D ( 'NONE', #155, #31, #153 ) ;
#99 = STYLED_ITEM ( 'NONE', ( #86 ), #117 ) ;
#100 = ORIENTED_EDGE ( 'NONE', *, *, #236, .T. ) ;
#101 = CIRCLE ( 'NONE', #347, 10.25000000000000000 ) ;
#102 = ORIENTED_EDGE ( 'NONE', *, *, #252, .T. ) ;
#103 = PRODUCT ( '99ACE44D-701A-44B7-990F-3090FD6E7E1F', '99ACE44D-701A-44B7-990F-3090FD6E7E1F', '', ( #39 ) ) ;
#104 = FILL_AREA_STYLE_COLOUR ( '', #82 ) ;
#105 = ORIENTED_EDGE ( 'NONE', *, *, #257, .F. ) ;
#106 = ORIENTED_EDGE ( 'NONE', *, *, #186, .F. ) ;
#107 = CIRCLE ( 'NONE', #36, 10.24999999999998934 ) ;
#108 = FILL_AREA_STYLE ('',( #169 ) ) ;
#109 = DIRECTION ( 'NONE',  ( 0.0000000000000000000, -0.0000000000000000000, 1.000000000000000000 ) ) ;
#110 = UNCERTAINTY_MEASURE_WITH_UNIT (LENGTH_MEASURE( 1.000000000000000082E-05 ), #71, 'distance_accuracy_value', 'NONE');
#111 = DIRECTION ( 'NONE',  ( 1.000000000000000000, 0.0000000000000000000, 0.0000000000000000000 ) ) ;
#112 = ADVANCED_FACE ( 'NONE', ( #365, #50 ), #288, .F. ) ;
#113 = DIRECTION ( 'NONE',  ( 1.000000000000000000, 0.0000000000000000000, 0.0000000000000000000 ) ) ;
#114 = VECTOR ( 'NONE', #121, 1000.000000000000000 ) ;
#115 = DIRECTION ( 'NONE',  ( 1.000000000000000000, 0.0000000000000000000, 0.0000000000000000000 ) ) ;
#116 = DIRECTION ( 'NONE',  ( 1.000000000000000000, 0.0000000000000000000, 0.0000000000000000000 ) ) ;
#117 = MANIFOLD_SOLID_BREP ( 'Revolve1', #209 ) ;
#118 = DIRECTION ( 'NONE',  ( -0.0000000000000000000, -0.0000000000000000000, 1.000000000000000000 ) ) ;
#119 = EDGE_CURVE ( 'NONE', #245, #130, #352, .T. ) ;
#120 = AXIS2_PLACEMENT_3D ( 'NONE', #143, #256, #113 ) ;
#121 = DIRECTION ( 'NONE',  ( -0.0000000000000000000, -0.0000000000000000000, 1.000000000000000000 ) ) ;
#122 = CARTESIAN_POINT ( 'NONE',  ( 0.0000000000000000000, 0.0000000000000000000, -42.25000000000002132 ) ) ;
#123 = EDGE_CURVE ( 'NONE', #159, #238, #46, .T. ) ;
#124 = DIRECTION ( 'NONE',  ( -0.0000000000000000000, -0.0000000000000000000, 1.000000000000000000 ) ) ;
#125 = CARTESIAN_POINT ( 'NONE',  ( 0.0000000000000000000, 0.0000000000000000000, -39.99999999999999289 ) ) ;
#126 = ORIENTED_EDGE ( 'NONE', *, *, #252, .F. ) ;
#127 = CARTESIAN_POINT ( 'NONE',  ( 0.0000000000000000000, 0.0000000000000000000, 98.43369195224448731 ) ) ;
#128 = VERTEX_POINT ( 'NONE', #79 ) ;
#129 = EDGE_CURVE ( 'NONE', #362, #279, #81, .T. ) ;
#130 = VERTEX_POINT ( 'NONE', #151 ) ;
#131 =( NAMED_UNIT ( * ) PLANE_ANGLE_UNIT ( ) SI_UNIT ( $, .RADIAN. ) );
#132 = CIRCLE ( 'NONE', #198, 10.25000000000000000 ) ;
#133 = AXIS2_PLACEMENT_3D ( 'NONE', #127, #353, #201 ) ;
#134 = VERTEX_POINT ( 'NONE', #230 ) ;
#135 = CARTESIAN_POINT ( 'NONE',  ( 0.0000000000000000000, 0.0000000000000000000, -42.25000000000002132 ) ) ;
#136 = ORIENTED_EDGE ( 'NONE', *, *, #189, .F. ) ;
#137 = EDGE_LOOP ( 'NONE', ( #45, #243, #220, #126 ) ) ;
#138 = LINE ( 'NONE', #200, #178 ) ;
#139 = ORIENTED_EDGE ( 'NONE', *, *, #33, .F. ) ;
#140 = VECTOR ( 'NONE', #124, 1000.000000000000000 ) ;
#141 = AXIS2_PLACEMENT_3D ( 'NONE', #6, #93, #323 ) ;
#142 = DIRECTION ( 'NONE',  ( -0.0000000000000000000, -0.0000000000000000000, 1.000000000000000000 ) ) ;
#143 = CARTESIAN_POINT ( 'NONE',  ( 0.0000000000000000000, 0.0000000000000000000, -42.25000000000002132 ) ) ;
#144 = DIRECTION ( 'NONE',  ( 1.000000000000000000, 0.0000000000000000000, 0.0000000000000000000 ) ) ;
#145 = CARTESIAN_POINT ( 'NONE',  ( 0.0000000000000000000, 0.0000000000000000000, 39.99999999999998579 ) ) ;
#146 = DIRECTION ( 'NONE',  ( 0.0000000000000000000, 0.0000000000000000000, -1.000000000000000000 ) ) ;
#147 =( GEOMETRIC_REPRESENTATION_CONTEXT ( 3 ) GLOBAL_UNCERTAINTY_ASSIGNED_CONTEXT ( ( #154 ) ) GLOBAL_UNIT_ASSIGNED_CONTEXT ( ( #48, #368, #251 ) ) REPRESENTATION_CONTEXT ( 'NONE', 'WORKASPACE' ) );
#148 = DIRECTION ( 'NONE',  ( -0.0000000000000000000, -0.0000000000000000000, 1.000000000000000000 ) ) ;
#149 = CARTESIAN_POINT ( 'NONE',  ( -10.24999999999998934, 1.255262969126035860E-15, 98.43369195224448731 ) ) ;
#150 = DIRECTION ( 'NONE',  ( -0.0000000000000000000, -0.0000000000000000000, 1.000000000000000000 ) ) ;
#151 = CARTESIAN_POINT ( 'NONE',  ( -10.24999999999998934, 1.255262969126035860E-15, 39.99999999999998579 ) ) ;
#152 = CARTESIAN_POINT ( 'NONE',  ( -7.250000000000000000, 8.878689293818310074E-16, -42.25000000000002132 ) ) ;
#153 = DIRECTION ( 'NONE',  ( 1.000000000000000000, 0.0000000000000000000, 0.0000000000000000000 ) ) ;
#154 = UNCERTAINTY_MEASURE_WITH_UNIT (LENGTH_MEASURE( 1.000000000000000082E-05 ), #48, 'distance_accuracy_value', 'NONE');
#155 = CARTESIAN_POINT ( 'NONE',  ( 0.0000000000000000000, 0.0000000000000000000, -39.99999999999999289 ) ) ;
#156 = ORIENTED_EDGE ( 'NONE', *, *, #285, .T. ) ;
#157 = APPLICATION_PROTOCOL_DEFINITION ( 'draft international standard', 'automotive_design', 1998, #309 ) ;
#158 = VECTOR ( 'NONE', #348, 1000.000000000000000 ) ;
#159 = VERTEX_POINT ( 'NONE', #269 ) ;
#160 = FILL_AREA_STYLE ('',( #104 ) ) ;
#161 = VERTEX_POINT ( 'NONE', #266 ) ;
#162 = EDGE_LOOP ( 'NONE', ( #304, #277 ) ) ;
#163 =( NAMED_UNIT ( * ) PLANE_ANGLE_UNIT ( ) SI_UNIT ( $, .RADIAN. ) );
#164 = ORIENTED_EDGE ( 'NONE', *, *, #247, .T. ) ;
#165 = ORIENTED_EDGE ( 'NONE', *, *, #119, .F. ) ;
#166 = CARTESIAN_POINT ( 'NONE',  ( 7.249999999999995559, 0.0000000000000000000, 98.43369195224448731 ) ) ;
#167 = AXIS2_PLACEMENT_3D ( 'NONE', #182, #118, #319 ) ;
#168 = AXIS2_PLACEMENT_3D ( 'NONE', #351, #264, #261 ) ;
#169 = FILL_AREA_STYLE_COLOUR ( '', #283 ) ;
#170 = DIRECTION ( 'NONE',  ( 1.000000000000000000, 0.0000000000000000000, 0.0000000000000000000 ) ) ;
#171 = EDGE_CURVE ( 'NONE', #279, #362, #132, .T. ) ;
#172 = CYLINDRICAL_SURFACE ( 'NONE', #224, 10.25000000000000000 ) ;
#173 = CARTESIAN_POINT ( 'NONE',  ( 0.0000000000000000000, 0.0000000000000000000, 39.99999999999999289 ) ) ;
#174 = CARTESIAN_POINT ( 'NONE',  ( 30.00000000000001066, 0.0000000000000000000, -39.99999999999999289 ) ) ;
#175 = LINE ( 'NONE', #92, #13 ) ;
#176 = ADVANCED_FACE ( 'NONE', ( #278 ), #83, .T. ) ;
#177 = CARTESIAN_POINT ( 'NONE',  ( 0.0000000000000000000, 0.0000000000000000000, 39.99999999999999289 ) ) ;
#178 = VECTOR ( 'NONE', #221, 1000.000000000000000 ) ;
#179 =( GEOMETRIC_REPRESENTATION_CONTEXT ( 3 ) GLOBAL_UNCERTAINTY_ASSIGNED_CONTEXT ( ( #110 ) ) GLOBAL_UNIT_ASSIGNED_CONTEXT ( ( #71, #163, #212 ) ) REPRESENTATION_CONTEXT ( 'NONE', 'WORKASPACE' ) );
#180 = CYLINDRICAL_SURFACE ( 'NONE', #168, 30.00000000000000711 ) ;
#181 = ORIENTED_EDGE ( 'NONE', *, *, #300, .T. ) ;
#182 = CARTESIAN_POINT ( 'NONE',  ( 0.0000000000000000000, 0.0000000000000000000, 98.43369195224448731 ) ) ;
#183 = DIRECTION ( 'NONE',  ( 1.000000000000000000, 0.0000000000000000000, 0.0000000000000000000 ) ) ;
#184 = DIRECTION ( 'NONE',  ( 0.0000000000000000000, 0.0000000000000000000, -1.000000000000000000 ) ) ;
#185 = VECTOR ( 'NONE', #208, 1000.000000000000000 ) ;
#186 = EDGE_CURVE ( 'NONE', #159, #275, #346, .T. ) ;
#187 = EDGE_LOOP ( 'NONE', ( #202, #181, #72, #10 ) ) ;
#188 = ORIENTED_EDGE ( 'NONE', *, *, #271, .T. ) ;
#189 = EDGE_CURVE ( 'NONE', #134, #362, #138, .T. ) ;
#190 = EDGE_LOOP ( 'NONE', ( #5, #246, #235, #16 ) ) ;
#191 =( NAMED_UNIT ( * ) SI_UNIT ( $, .STERADIAN. ) SOLID_ANGLE_UNIT ( ) );
#192 = AXIS2_PLACEMENT_3D ( 'NONE', #145, #227, #312 ) ;
#193 = STYLED_ITEM ( 'NONE', ( #242 ), #253 ) ;
#194 = EDGE_LOOP ( 'NONE', ( #105, #241, #156, #75 ) ) ;
#195 = ORIENTED_EDGE ( 'NONE', *, *, #171, .T. ) ;
#196 = FACE_OUTER_BOUND ( 'NONE', #97, .T. ) ;
#197 = CARTESIAN_POINT ( 'NONE',  ( 0.0000000000000000000, 0.0000000000000000000, -39.99999999999999289 ) ) ;
#198 = AXIS2_PLACEMENT_3D ( 'NONE', #125, #64, #15 ) ;
#199 = DIRECTION ( 'NONE',  ( -0.0000000000000000000, -0.0000000000000000000, 1.000000000000000000 ) ) ;
#200 = CARTESIAN_POINT ( 'NONE',  ( -10.25000000000000000, 1.255262969126037241E-15, 98.43369195224448731 ) ) ;
#201 = DIRECTION ( 'NONE',  ( 1.000000000000000000, 0.0000000000000000000, 0.0000000000000000000 ) ) ;
#202 = ORIENTED_EDGE ( 'NONE', *, *, #119, .T. ) ;
#203 = AXIS2_PLACEMENT_3D ( 'NONE', #76, #109, #222 ) ;
#204 = AXIS2_PLACEMENT_3D ( 'NONE', #11, #213, #217 ) ;
#205 = DIRECTION ( 'NONE',  ( -0.0000000000000000000, -0.0000000000000000000, 1.000000000000000000 ) ) ;
#206 = VERTEX_POINT ( 'NONE', #313 ) ;
#207 = CARTESIAN_POINT ( 'NONE',  ( -7.249999999999995559, 8.878689293818304158E-16, 98.43369195224448731 ) ) ;
#208 = DIRECTION ( 'NONE',  ( -0.0000000000000000000, -0.0000000000000000000, 1.000000000000000000 ) ) ;
#209 = CLOSED_SHELL ( 'NONE', ( #49, #324, #354, #80, #214, #225, #370, #95, #112, #349, #327, #176 ) ) ;
#210 = CYLINDRICAL_SURFACE ( 'NONE', #133, 30.00000000000000711 ) ;
#211 = DIRECTION ( 'NONE',  ( 1.000000000000000000, 0.0000000000000000000, 0.0000000000000000000 ) ) ;
#212 =( NAMED_UNIT ( * ) SI_UNIT ( $, .STERADIAN. ) SOLID_ANGLE_UNIT ( ) );
#213 = DIRECTION ( 'NONE',  ( -0.0000000000000000000, -0.0000000000000000000, 1.000000000000000000 ) ) ;
#214 = ADVANCED_FACE ( 'NONE', ( #367, #248 ), #51, .F. ) ;
#215 = EDGE_LOOP ( 'NONE', ( #360, #267 ) ) ;
#216 = ORIENTED_EDGE ( 'NONE', *, *, #255, .F. ) ;
#217 = DIRECTION ( 'NONE',  ( 1.000000000000000000, 0.0000000000000000000, 0.0000000000000000000 ) ) ;
#218 = EDGE_LOOP ( 'NONE', ( #139, #216 ) ) ;
#219 = VERTEX_POINT ( 'NONE', #338 ) ;
#220 = ORIENTED_EDGE ( 'NONE', *, *, #171, .F. ) ;
#221 = DIRECTION ( 'NONE',  ( -0.0000000000000000000, -0.0000000000000000000, 1.000000000000000000 ) ) ;
#222 = DIRECTION ( 'NONE',  ( 1.000000000000000000, 0.0000000000000000000, 0.0000000000000000000 ) ) ;
#223 = VERTEX_POINT ( 'NONE', #78 ) ;
#224 = AXIS2_PLACEMENT_3D ( 'NONE', #20, #317, #286 ) ;
#225 = ADVANCED_FACE ( 'NONE', ( #196 ), #233, .F. ) ;
#226 = PRESENTATION_LAYER_ASSIGNMENT (  '', '', ( #193 ) ) ;
#227 = DIRECTION ( 'NONE',  ( -0.0000000000000000000, -0.0000000000000000000, 1.000000000000000000 ) ) ;
#228 = CARTESIAN_POINT ( 'NONE',  ( 0.0000000000000000000, 0.0000000000000000000, 98.43369195224448731 ) ) ;
#229 = FACE_BOUND ( 'NONE', #355, .T. ) ;
#230 = CARTESIAN_POINT ( 'NONE',  ( -10.25000000000000000, 1.255262969126037241E-15, -42.25000000000002132 ) ) ;
#231 = CIRCLE ( 'NONE', #60, 30.00000000000000000 ) ;
#232 = FACE_OUTER_BOUND ( 'NONE', #218, .T. ) ;
#233 = CYLINDRICAL_SURFACE ( 'NONE', #167, 7.249999999999995559 ) ;
#234 = LINE ( 'NONE', #207, #276 ) ;
#235 = ORIENTED_EDGE ( 'NONE', *, *, #25, .T. ) ;
#236 = EDGE_CURVE ( 'NONE', #333, #219, #107, .T. ) ;
#237 = CARTESIAN_POINT ( 'NONE',  ( -30.00000000000000711, 3.673940397442059967E-15, 98.43369195224448731 ) ) ;
#238 = VERTEX_POINT ( 'NONE', #53 ) ;
#239 = FACE_OUTER_BOUND ( 'NONE', #18, .T. ) ;
#240 = EDGE_CURVE ( 'NONE', #245, #219, #295, .T. ) ;
#241 = ORIENTED_EDGE ( 'NONE', *, *, #255, .T. ) ;
#242 = PRESENTATION_STYLE_ASSIGNMENT (( #43 ) ) ;
#243 = ORIENTED_EDGE ( 'NONE', *, *, #189, .T. ) ;
#244 = DIRECTION ( 'NONE',  ( 0.0000000000000000000, 0.0000000000000000000, 1.000000000000000000 ) ) ;
#245 = VERTEX_POINT ( 'NONE', #325 ) ;
#246 = ORIENTED_EDGE ( 'NONE', *, *, #292, .T. ) ;
#247 = EDGE_CURVE ( 'NONE', #223, #40, #19, .T. ) ;
#248 = FACE_BOUND ( 'NONE', #215, .T. ) ;
#249 = AXIS2_PLACEMENT_3D ( 'NONE', #173, #57, #27 ) ;
#250 = AXIS2_PLACEMENT_3D ( 'NONE', #65, #332, #183 ) ;
#251 =( NAMED_UNIT ( * ) SI_UNIT ( $, .STERADIAN. ) SOLID_ANGLE_UNIT ( ) );
#252 = EDGE_CURVE ( 'NONE', #128, #279, #262, .T. ) ;
#253 = ADVANCED_BREP_SHAPE_REPRESENTATION ( '99ACE44D-701A-44B7-990F-3090FD6E7E1F', ( #117, #297 ), #315 ) ;
#254 = CARTESIAN_POINT ( 'NONE',  ( 0.0000000000000000000, 0.0000000000000000000, 42.24999999999999289 ) ) ;
#255 = EDGE_CURVE ( 'NONE', #206, #17, #363, .T. ) ;
#256 = DIRECTION ( 'NONE',  ( -0.0000000000000000000, -0.0000000000000000000, 1.000000000000000000 ) ) ;
#257 = EDGE_CURVE ( 'NONE', #206, #40, #299, .T. ) ;
#258 = DIRECTION ( 'NONE',  ( -1.000000000000000000, 0.0000000000000000000, -0.0000000000000000000 ) ) ;
#259 = CIRCLE ( 'NONE', #290, 30.00000000000001066 ) ;
#260 = CARTESIAN_POINT ( 'NONE',  ( 0.0000000000000000000, 0.0000000000000000000, 98.43369195224448731 ) ) ;
#261 = DIRECTION ( 'NONE',  ( 1.000000000000000000, 0.0000000000000000000, 0.0000000000000000000 ) ) ;
#262 = LINE ( 'NONE', #29, #158 ) ;
#263 = PRESENTATION_LAYER_ASSIGNMENT (  '', '', ( #99 ) ) ;
#264 = DIRECTION ( 'NONE',  ( -0.0000000000000000000, -0.0000000000000000000, 1.000000000000000000 ) ) ;
#265 = PRODUCT_DEFINITION_CONTEXT ( 'detailed design', #91, 'design' ) ;
#266 = CARTESIAN_POINT ( 'NONE',  ( -7.249999999999990230, 8.878689293818301199E-16, 42.24999999999999289 ) ) ;
#267 = ORIENTED_EDGE ( 'NONE', *, *, #62, .T. ) ;
#268 = FACE_OUTER_BOUND ( 'NONE', #194, .T. ) ;
#269 = CARTESIAN_POINT ( 'NONE',  ( 7.250000000000000000, 0.0000000000000000000, -42.25000000000002132 ) ) ;
#270 = CARTESIAN_POINT ( 'NONE',  ( 0.0000000000000000000, 0.0000000000000000000, 42.24999999999999289 ) ) ;
#271 = EDGE_CURVE ( 'NONE', #40, #223, #231, .T. ) ;
#272 = AXIS2_PLACEMENT_3D ( 'NONE', #69, #184, #303 ) ;
#273 = ORIENTED_EDGE ( 'NONE', *, *, #240, .T. ) ;
#274 = APPLICATION_PROTOCOL_DEFINITION ( 'draft international standard', 'automotive_design', 1998, #91 ) ;
#275 = VERTEX_POINT ( 'NONE', #152 ) ;
#276 = VECTOR ( 'NONE', #205, 1000.000000000000000 ) ;
#277 = ORIENTED_EDGE ( 'NONE', *, *, #25, .F. ) ;
#278 = FACE_OUTER_BOUND ( 'NONE', #42, .T. ) ;
#279 = VERTEX_POINT ( 'NONE', #3 ) ;
#280 = ORIENTED_EDGE ( 'NONE', *, *, #33, .T. ) ;
#281 = EDGE_CURVE ( 'NONE', #130, #245, #358, .T. ) ;
#282 = DIRECTION ( 'NONE',  ( -0.0000000000000000000, -0.0000000000000000000, 1.000000000000000000 ) ) ;
#283 = COLOUR_RGB ( '',0.2509803921568627416, 0.2509803921568627416, 0.2509803921568627416 ) ;
#284 = DIRECTION ( 'NONE',  ( -0.0000000000000000000, -0.0000000000000000000, 1.000000000000000000 ) ) ;
#285 = EDGE_CURVE ( 'NONE', #17, #223, #175, .T. ) ;
#286 = DIRECTION ( 'NONE',  ( 1.000000000000000000, 0.0000000000000000000, 0.0000000000000000000 ) ) ;
#287 = CARTESIAN_POINT ( 'NONE',  ( 0.0000000000000000000, 0.0000000000000000000, 98.43369195224448731 ) ) ;
#288 = PLANE ( 'NONE',  #52 ) ;
#289 = FACE_OUTER_BOUND ( 'NONE', #137, .T. ) ;
#290 = AXIS2_PLACEMENT_3D ( 'NONE', #337, #148, #116 ) ;
#291 = CARTESIAN_POINT ( 'NONE',  ( 10.24999999999998934, 0.0000000000000000000, 98.43369195224448731 ) ) ;
#292 = EDGE_CURVE ( 'NONE', #275, #161, #234, .T. ) ;
#293 = DIRECTION ( 'NONE',  ( -0.0000000000000000000, -0.0000000000000000000, 1.000000000000000000 ) ) ;
#294 = DIRECTION ( 'NONE',  ( -0.0000000000000000000, -0.0000000000000000000, 1.000000000000000000 ) ) ;
#295 = LINE ( 'NONE', #291, #185 ) ;
#296 = CIRCLE ( 'NONE', #120, 7.250000000000000000 ) ;
#297 = AXIS2_PLACEMENT_3D ( 'NONE', #306, #244, #334 ) ;
#298 = DIRECTION ( 'NONE',  ( 1.000000000000000000, 0.0000000000000000000, 0.0000000000000000000 ) ) ;
#299 = LINE ( 'NONE', #237, #140 ) ;
#300 = EDGE_CURVE ( 'NONE', #130, #333, #59, .T. ) ;
#301 = ORIENTED_EDGE ( 'NONE', *, *, #247, .F. ) ;
#302 = AXIS2_PLACEMENT_3D ( 'NONE', #55, #199, #26 ) ;
#303 = DIRECTION ( 'NONE',  ( -1.000000000000000000, 0.0000000000000000000, -0.0000000000000000000 ) ) ;
#304 = ORIENTED_EDGE ( 'NONE', *, *, #4, .F. ) ;
#305 = ORIENTED_EDGE ( 'NONE', *, *, #123, .T. ) ;
#306 = CARTESIAN_POINT ( 'NONE',  ( 0.0000000000000000000, 0.0000000000000000000, 0.0000000000000000000 ) ) ;
#307 = EDGE_LOOP ( 'NONE', ( #165, #357 ) ) ;
#308 = SURFACE_STYLE_FILL_AREA ( #160 ) ;
#309 = APPLICATION_CONTEXT ( 'automotive_design' ) ;
#310 = ORIENTED_EDGE ( 'NONE', *, *, #129, .T. ) ;
#311 = ORIENTED_EDGE ( 'NONE', *, *, #4, .T. ) ;
#312 = DIRECTION ( 'NONE',  ( 1.000000000000000000, 0.0000000000000000000, 0.0000000000000000000 ) ) ;
#313 = CARTESIAN_POINT ( 'NONE',  ( -30.00000000000001421, 3.673940397442060756E-15, -39.99999999999999289 ) ) ;
#314 = VECTOR ( 'NONE', #284, 1000.000000000000000 ) ;
#315 =( GEOMETRIC_REPRESENTATION_CONTEXT ( 3 ) GLOBAL_UNCERTAINTY_ASSIGNED_CONTEXT ( ( #90 ) ) GLOBAL_UNIT_ASSIGNED_CONTEXT ( ( #37, #131, #191 ) ) REPRESENTATION_CONTEXT ( 'NONE', 'WORKASPACE' ) );
#316 = SURFACE_SIDE_STYLE ('',( #369 ) ) ;
#317 = DIRECTION ( 'NONE',  ( -0.0000000000000000000, -0.0000000000000000000, 1.000000000000000000 ) ) ;
#318 = FACE_OUTER_BOUND ( 'NONE', #61, .T. ) ;
#319 = DIRECTION ( 'NONE',  ( 1.000000000000000000, 0.0000000000000000000, 0.0000000000000000000 ) ) ;
#320 = CYLINDRICAL_SURFACE ( 'NONE', #87, 7.249999999999995559 ) ;
#321 = AXIS2_PLACEMENT_3D ( 'NONE', #228, #84, #170 ) ;
#322 = DIRECTION ( 'NONE',  ( -0.0000000000000000000, -0.0000000000000000000, 1.000000000000000000 ) ) ;
#323 = DIRECTION ( 'NONE',  ( 1.000000000000000000, 0.0000000000000000000, 0.0000000000000000000 ) ) ;
#324 = ADVANCED_FACE ( 'NONE', ( #373 ), #180, .T. ) ;
#325 = CARTESIAN_POINT ( 'NONE',  ( 10.24999999999998934, 0.0000000000000000000, 39.99999999999998579 ) ) ;
#326 = AXIS2_PLACEMENT_3D ( 'NONE', #254, #77, #115 ) ;
#327 = ADVANCED_FACE ( 'NONE', ( #232, #229 ), #328, .F. ) ;
#328 = PLANE ( 'NONE',  #141 ) ;
#329 = SHAPE_DEFINITION_REPRESENTATION ( #41, #253 ) ;
#330 = FACE_BOUND ( 'NONE', #162, .T. ) ;
#331 = ORIENTED_EDGE ( 'NONE', *, *, #300, .F. ) ;
#332 = DIRECTION ( 'NONE',  ( -0.0000000000000000000, -0.0000000000000000000, 1.000000000000000000 ) ) ;
#333 = VERTEX_POINT ( 'NONE', #32 ) ;
#334 = DIRECTION ( 'NONE',  ( 1.000000000000000000, 0.0000000000000000000, 0.0000000000000000000 ) ) ;
#335 = EDGE_LOOP ( 'NONE', ( #73, #8 ) ) ;
#336 = ORIENTED_EDGE ( 'NONE', *, *, #129, .F. ) ;
#337 = CARTESIAN_POINT ( 'NONE',  ( 0.0000000000000000000, 0.0000000000000000000, -39.99999999999999289 ) ) ;
#338 = CARTESIAN_POINT ( 'NONE',  ( 10.24999999999998934, 0.0000000000000000000, 42.24999999999999289 ) ) ;
#339 = CARTESIAN_POINT ( 'NONE',  ( -30.00000000000000000, 3.673940397442059178E-15, 39.99999999999999289 ) ) ;
#340 = AXIS2_PLACEMENT_3D ( 'NONE', #89, #350, #28 ) ;
#341 = CYLINDRICAL_SURFACE ( 'NONE', #321, 10.24999999999998934 ) ;
#342 = CARTESIAN_POINT ( 'NONE',  ( 0.0000000000000000000, 0.0000000000000000000, -42.25000000000002132 ) ) ;
#343 = CARTESIAN_POINT ( 'NONE',  ( 0.0000000000000000000, 10.24999999999998934, 39.99999999999999289 ) ) ;
#344 = EDGE_CURVE ( 'NONE', #134, #128, #364, .T. ) ;
#345 = FACE_OUTER_BOUND ( 'NONE', #187, .T. ) ;
#346 = CIRCLE ( 'NONE', #23, 7.250000000000000000 ) ;
#347 = AXIS2_PLACEMENT_3D ( 'NONE', #135, #14, #96 ) ;
#348 = DIRECTION ( 'NONE',  ( -0.0000000000000000000, -0.0000000000000000000, 1.000000000000000000 ) ) ;
#349 = ADVANCED_FACE ( 'NONE', ( #268 ), #210, .T. ) ;
#350 = DIRECTION ( 'NONE',  ( -0.0000000000000000000, -0.0000000000000000000, 1.000000000000000000 ) ) ;
#351 = CARTESIAN_POINT ( 'NONE',  ( 0.0000000000000000000, 0.0000000000000000000, 98.43369195224448731 ) ) ;
#352 = CIRCLE ( 'NONE', #192, 10.24999999999998934 ) ;
#353 = DIRECTION ( 'NONE',  ( -0.0000000000000000000, -0.0000000000000000000, 1.000000000000000000 ) ) ;
#354 = ADVANCED_FACE ( 'NONE', ( #345 ), #88, .T. ) ;
#355 = EDGE_LOOP ( 'NONE', ( #195, #310 ) ) ;
#356 = SURFACE_SIDE_STYLE ('',( #308 ) ) ;
#357 = ORIENTED_EDGE ( 'NONE', *, *, #281, .F. ) ;
#358 = CIRCLE ( 'NONE', #340, 10.24999999999998934 ) ;
#359 = EDGE_CURVE ( 'NONE', #219, #333, #54, .T. ) ;
#360 = ORIENTED_EDGE ( 'NONE', *, *, #186, .T. ) ;
#361 = ORIENTED_EDGE ( 'NONE', *, *, #257, .T. ) ;
#362 = VERTEX_POINT ( 'NONE', #9 ) ;
#363 = CIRCLE ( 'NONE', #98, 30.00000000000001066 ) ;
#364 = CIRCLE ( 'NONE', #2, 10.25000000000000000 ) ;
#365 = FACE_BOUND ( 'NONE', #307, .T. ) ;
#366 = FACE_OUTER_BOUND ( 'NONE', #190, .T. ) ;
#367 = FACE_OUTER_BOUND ( 'NONE', #335, .T. ) ;
#368 =( NAMED_UNIT ( * ) PLANE_ANGLE_UNIT ( ) SI_UNIT ( $, .RADIAN. ) );
#369 = SURFACE_STYLE_FILL_AREA ( #108 ) ;
#370 = ADVANCED_FACE ( 'NONE', ( #330, #239 ), #66, .F. ) ;
#371 = DIRECTION ( 'NONE',  ( -0.0000000000000000000, -0.0000000000000000000, 1.000000000000000000 ) ) ;
#372 = EDGE_CURVE ( 'NONE', #128, #134, #101, .T. ) ;
#373 = FACE_OUTER_BOUND ( 'NONE', #12, .T. ) ;
#374 = DIRECTION ( 'NONE',  ( 1.000000000000000000, 0.0000000000000000000, 0.0000000000000000000 ) ) ;
ENDSEC;
END-ISO-10303-21;
