ISO-10303-21;
HEADER;
FILE_DESCRIPTION (( 'STEP AP214' ),
    '1' );
FILE_NAME ('1903FEFA-A7DD-4566-8194-E6D66C0AE889.STEP',
    '2023-08-02T10:54:56',
    ( '' ),
    ( '' ),
    'SwSTEP 2.0',
    'SolidWorks 2022',
    '' );
FILE_SCHEMA (( 'AUTOMOTIVE_DESIGN' ));
ENDSEC;

DATA;
#1 = DIRECTION ( 'NONE',  ( 1.000000000000000000, 0.0000000000000000000, 0.0000000000000000000 ) ) ;
#2 = EDGE_CURVE ( 'NONE', #103, #363, #341, .T. ) ;
#3 = CYLINDRICAL_SURFACE ( 'NONE', #207, 30.00000000000000711 ) ;
#4 = EDGE_LOOP ( 'NONE', ( #46, #23 ) ) ;
#5 = AXIS2_PLACEMENT_3D ( 'NONE', #122, #152, #354 ) ;
#6 = AXIS2_PLACEMENT_3D ( 'NONE', #155, #158, #364 ) ;
#7 = FACE_BOUND ( 'NONE', #99, .T. ) ;
#8 = DIRECTION ( 'NONE',  ( 0.0000000000000000000, -0.0000000000000000000, 1.000000000000000000 ) ) ;
#9 = ORIENTED_EDGE ( 'NONE', *, *, #191, .F. ) ;
#10 = LINE ( 'NONE', #91, #180 ) ;
#11 = CIRCLE ( 'NONE', #221, 12.25000000000000000 ) ;
#12 = PRODUCT_DEFINITION_FORMATION_WITH_SPECIFIED_SOURCE ( 'ANY', '', #120, .NOT_KNOWN. ) ;
#13 = CARTESIAN_POINT ( 'NONE',  ( 0.0000000000000000000, 0.0000000000000000000, -39.99999999999999289 ) ) ;
#14 = ORIENTED_EDGE ( 'NONE', *, *, #174, .T. ) ;
#15 = EDGE_CURVE ( 'NONE', #126, #271, #224, .T. ) ;
#16 = FILL_AREA_STYLE_COLOUR ( '', #154 ) ;
#17 = ORIENTED_EDGE ( 'NONE', *, *, #267, .F. ) ;
#18 = CLOSED_SHELL ( 'NONE', ( #102, #212, #299, #108, #250, #92, #42, #22, #168, #129, #234, #286 ) ) ;
#19 = CYLINDRICAL_SURFACE ( 'NONE', #6, 12.24999999999998934 ) ;
#20 = ORIENTED_EDGE ( 'NONE', *, *, #96, .T. ) ;
#21 = CARTESIAN_POINT ( 'NONE',  ( -12.25000000000000000, 1.500192328955507734E-15, -39.99999999999999289 ) ) ;
#22 = ADVANCED_FACE ( 'NONE', ( #25 ), #372, .T. ) ;
#23 = ORIENTED_EDGE ( 'NONE', *, *, #2, .F. ) ;
#24 = AXIS2_PLACEMENT_3D ( 'NONE', #116, #29, #59 ) ;
#25 = FACE_OUTER_BOUND ( 'NONE', #246, .T. ) ;
#26 = DIRECTION ( 'NONE',  ( 1.000000000000000000, 0.0000000000000000000, 0.0000000000000000000 ) ) ;
#27 = DIRECTION ( 'NONE',  ( -0.0000000000000000000, -0.0000000000000000000, 1.000000000000000000 ) ) ;
#28 = FACE_OUTER_BOUND ( 'NONE', #208, .T. ) ;
#29 = DIRECTION ( 'NONE',  ( -0.0000000000000000000, -0.0000000000000000000, 1.000000000000000000 ) ) ;
#30 = FACE_OUTER_BOUND ( 'NONE', #123, .T. ) ;
#31 = CARTESIAN_POINT ( 'NONE',  ( 0.0000000000000000000, 0.0000000000000000000, 98.43369195224448731 ) ) ;
#32 =( GEOMETRIC_REPRESENTATION_CONTEXT ( 3 ) GLOBAL_UNCERTAINTY_ASSIGNED_CONTEXT ( ( #282 ) ) GLOBAL_UNIT_ASSIGNED_CONTEXT ( ( #325, #247, #295 ) ) REPRESENTATION_CONTEXT ( 'NONE', 'WORKASPACE' ) );
#33 = ORIENTED_EDGE ( 'NONE', *, *, #262, .F. ) ;
#34 = AXIS2_PLACEMENT_3D ( 'NONE', #359, #218, #43 ) ;
#35 = DIRECTION ( 'NONE',  ( -0.0000000000000000000, -0.0000000000000000000, 1.000000000000000000 ) ) ;
#36 = EDGE_CURVE ( 'NONE', #277, #220, #140, .T. ) ;
#37 = DIRECTION ( 'NONE',  ( 0.0000000000000000000, -0.0000000000000000000, 1.000000000000000000 ) ) ;
#38 = CARTESIAN_POINT ( 'NONE',  ( -9.250000000000001776, 1.132798289211301698E-15, -42.25000000000002132 ) ) ;
#39 = ORIENTED_EDGE ( 'NONE', *, *, #96, .F. ) ;
#40 = AXIS2_PLACEMENT_3D ( 'NONE', #209, #37, #322 ) ;
#41 = AXIS2_PLACEMENT_3D ( 'NONE', #269, #297, #101 ) ;
#42 = ADVANCED_FACE ( 'NONE', ( #113, #226 ), #198, .F. ) ;
#43 = DIRECTION ( 'NONE',  ( 1.000000000000000000, 0.0000000000000000000, 0.0000000000000000000 ) ) ;
#44 = ORIENTED_EDGE ( 'NONE', *, *, #183, .F. ) ;
#45 = CARTESIAN_POINT ( 'NONE',  ( 9.249999999999989342, 0.0000000000000000000, 42.24999999999999289 ) ) ;
#46 = ORIENTED_EDGE ( 'NONE', *, *, #257, .F. ) ;
#47 = AXIS2_PLACEMENT_3D ( 'NONE', #369, #27, #63 ) ;
#48 = FACE_OUTER_BOUND ( 'NONE', #76, .T. ) ;
#49 = EDGE_LOOP ( 'NONE', ( #81, #223, #331, #80 ) ) ;
#50 = EDGE_CURVE ( 'NONE', #150, #125, #146, .T. ) ;
#51 = UNCERTAINTY_MEASURE_WITH_UNIT (LENGTH_MEASURE( 1.000000000000000082E-05 ), #114, 'distance_accuracy_value', 'NONE');
#52 = ORIENTED_EDGE ( 'NONE', *, *, #317, .T. ) ;
#53 = ORIENTED_EDGE ( 'NONE', *, *, #174, .F. ) ;
#54 = CIRCLE ( 'NONE', #41, 12.25000000000000000 ) ;
#55 = CIRCLE ( 'NONE', #163, 12.25000000000000000 ) ;
#56 = MECHANICAL_DESIGN_GEOMETRIC_PRESENTATION_REPRESENTATION (  '', ( #260 ), #32 ) ;
#57 = DIRECTION ( 'NONE',  ( -0.0000000000000000000, -0.0000000000000000000, 1.000000000000000000 ) ) ;
#58 = PRODUCT_DEFINITION_SHAPE ( 'NONE', 'NONE',  #357 ) ;
#59 = DIRECTION ( 'NONE',  ( 1.000000000000000000, 0.0000000000000000000, 0.0000000000000000000 ) ) ;
#60 =( NAMED_UNIT ( * ) PLANE_ANGLE_UNIT ( ) SI_UNIT ( $, .RADIAN. ) );
#61 = CYLINDRICAL_SURFACE ( 'NONE', #272, 9.249999999999994671 ) ;
#62 =( NAMED_UNIT ( * ) SI_UNIT ( $, .STERADIAN. ) SOLID_ANGLE_UNIT ( ) );
#63 = DIRECTION ( 'NONE',  ( 1.000000000000000000, 0.0000000000000000000, 0.0000000000000000000 ) ) ;
#64 = COLOUR_RGB ( '',0.2509803921568627416, 0.2509803921568627416, 0.2509803921568627416 ) ;
#65 = CYLINDRICAL_SURFACE ( 'NONE', #118, 12.25000000000000000 ) ;
#66 = DIRECTION ( 'NONE',  ( 0.0000000000000000000, 0.0000000000000000000, -1.000000000000000000 ) ) ;
#67 = FACE_OUTER_BOUND ( 'NONE', #296, .T. ) ;
#68 = EDGE_LOOP ( 'NONE', ( #159, #219 ) ) ;
#69 = EDGE_CURVE ( 'NONE', #125, #220, #313, .T. ) ;
#70 = CARTESIAN_POINT ( 'NONE',  ( 0.0000000000000000000, 0.0000000000000000000, 42.24999999999999289 ) ) ;
#71 = DIRECTION ( 'NONE',  ( -0.0000000000000000000, -0.0000000000000000000, 1.000000000000000000 ) ) ;
#72 = CIRCLE ( 'NONE', #47, 12.24999999999998934 ) ;
#73 = CARTESIAN_POINT ( 'NONE',  ( -12.24999999999998934, 1.500192328955506551E-15, 42.24999999999999289 ) ) ;
#74 = EDGE_LOOP ( 'NONE', ( #242, #135, #356, #349 ) ) ;
#75 = SURFACE_STYLE_FILL_AREA ( #330 ) ;
#76 = EDGE_LOOP ( 'NONE', ( #20, #333, #275, #244 ) ) ;
#77 = EDGE_LOOP ( 'NONE', ( #133, #186 ) ) ;
#78 = EDGE_CURVE ( 'NONE', #298, #157, #55, .T. ) ;
#79 = DIRECTION ( 'NONE',  ( 1.000000000000000000, 0.0000000000000000000, 0.0000000000000000000 ) ) ;
#80 = ORIENTED_EDGE ( 'NONE', *, *, #257, .T. ) ;
#81 = ORIENTED_EDGE ( 'NONE', *, *, #279, .F. ) ;
#82 = DIRECTION ( 'NONE',  ( -0.0000000000000000000, -0.0000000000000000000, 1.000000000000000000 ) ) ;
#83 = AXIS2_PLACEMENT_3D ( 'NONE', #147, #290, #233 ) ;
#84 = DIRECTION ( 'NONE',  ( 1.000000000000000000, 0.0000000000000000000, 0.0000000000000000000 ) ) ;
#85 = DIRECTION ( 'NONE',  ( -0.0000000000000000000, -0.0000000000000000000, 1.000000000000000000 ) ) ;
#86 = CARTESIAN_POINT ( 'NONE',  ( 12.25000000000000000, 0.0000000000000000000, -39.99999999999999289 ) ) ;
#87 = CARTESIAN_POINT ( 'NONE',  ( 0.0000000000000000000, 0.0000000000000000000, 98.43369195224448731 ) ) ;
#88 = CIRCLE ( 'NONE', #345, 12.24999999999998934 ) ;
#89 = DIRECTION ( 'NONE',  ( -0.0000000000000000000, -0.0000000000000000000, 1.000000000000000000 ) ) ;
#90 = ORIENTED_EDGE ( 'NONE', *, *, #15, .T. ) ;
#91 = CARTESIAN_POINT ( 'NONE',  ( -12.24999999999998934, 1.500192328955506551E-15, 98.43369195224448731 ) ) ;
#92 = ADVANCED_FACE ( 'NONE', ( #139 ), #61, .F. ) ;
#93 = DIRECTION ( 'NONE',  ( -0.0000000000000000000, -0.0000000000000000000, 1.000000000000000000 ) ) ;
#94 = ORIENTED_EDGE ( 'NONE', *, *, #36, .T. ) ;
#95 = CARTESIAN_POINT ( 'NONE',  ( 0.0000000000000000000, 0.0000000000000000000, 39.99999999999998579 ) ) ;
#96 = EDGE_CURVE ( 'NONE', #126, #188, #72, .T. ) ;
#97 = PLANE ( 'NONE',  #358 ) ;
#98 = SURFACE_SIDE_STYLE ('',( #187 ) ) ;
#99 = EDGE_LOOP ( 'NONE', ( #14, #127 ) ) ;
#100 = ORIENTED_EDGE ( 'NONE', *, *, #279, .T. ) ;
#101 = DIRECTION ( 'NONE',  ( 1.000000000000000000, 0.0000000000000000000, 0.0000000000000000000 ) ) ;
#102 = ADVANCED_FACE ( 'NONE', ( #28 ), #315, .T. ) ;
#103 = VERTEX_POINT ( 'NONE', #145 ) ;
#104 =( LENGTH_UNIT ( ) NAMED_UNIT ( * ) SI_UNIT ( .MILLI., .METRE. ) );
#105 = ORIENTED_EDGE ( 'NONE', *, *, #291, .T. ) ;
#106 = FILL_AREA_STYLE_COLOUR ( '', #64 ) ;
#107 = ORIENTED_EDGE ( 'NONE', *, *, #200, .F. ) ;
#108 = ADVANCED_FACE ( 'NONE', ( #308 ), #255, .F. ) ;
#109 = APPLICATION_PROTOCOL_DEFINITION ( 'draft international standard', 'automotive_design', 1998, #251 ) ;
#110 = CARTESIAN_POINT ( 'NONE',  ( 30.00000000000000000, 0.0000000000000000000, 39.99999999999999289 ) ) ;
#111 = DIRECTION ( 'NONE',  ( 1.000000000000000000, 0.0000000000000000000, 0.0000000000000000000 ) ) ;
#112 = AXIS2_PLACEMENT_3D ( 'NONE', #13, #148, #178 ) ;
#113 = FACE_BOUND ( 'NONE', #4, .T. ) ;
#114 =( LENGTH_UNIT ( ) NAMED_UNIT ( * ) SI_UNIT ( .MILLI., .METRE. ) );
#115 = CYLINDRICAL_SURFACE ( 'NONE', #241, 30.00000000000000711 ) ;
#116 = CARTESIAN_POINT ( 'NONE',  ( 0.0000000000000000000, 0.0000000000000000000, 42.24999999999999289 ) ) ;
#117 = CARTESIAN_POINT ( 'NONE',  ( 12.24999999999998934, 0.0000000000000000000, 42.24999999999999289 ) ) ;
#118 = AXIS2_PLACEMENT_3D ( 'NONE', #176, #35, #173 ) ;
#119 = FACE_BOUND ( 'NONE', #77, .T. ) ;
#120 = PRODUCT ( '1903FEFA-A7DD-4566-8194-E6D66C0AE889', '1903FEFA-A7DD-4566-8194-E6D66C0AE889', '', ( #309 ) ) ;
#121 = CARTESIAN_POINT ( 'NONE',  ( 0.0000000000000000000, 30.00000000000001066, -40.00000000000000711 ) ) ;
#122 = CARTESIAN_POINT ( 'NONE',  ( 0.0000000000000000000, 0.0000000000000000000, 42.24999999999999289 ) ) ;
#123 = EDGE_LOOP ( 'NONE', ( #215, #94, #131, #304 ) ) ;
#124 = FACE_OUTER_BOUND ( 'NONE', #270, .T. ) ;
#125 = VERTEX_POINT ( 'NONE', #110 ) ;
#126 = VERTEX_POINT ( 'NONE', #166 ) ;
#127 = ORIENTED_EDGE ( 'NONE', *, *, #78, .T. ) ;
#128 = AXIS2_PLACEMENT_3D ( 'NONE', #228, #169, #1 ) ;
#129 = ADVANCED_FACE ( 'NONE', ( #256 ), #115, .T. ) ;
#130 = DIRECTION ( 'NONE',  ( -0.0000000000000000000, -0.0000000000000000000, 1.000000000000000000 ) ) ;
#131 = ORIENTED_EDGE ( 'NONE', *, *, #69, .F. ) ;
#132 = CARTESIAN_POINT ( 'NONE',  ( 12.25000000000000000, 0.0000000000000000000, 98.43369195224448731 ) ) ;
#133 = ORIENTED_EDGE ( 'NONE', *, *, #368, .T. ) ;
#134 = PRODUCT_DEFINITION_CONTEXT ( 'detailed design', #251, 'design' ) ;
#135 = ORIENTED_EDGE ( 'NONE', *, *, #371, .T. ) ;
#136 = EDGE_CURVE ( 'NONE', #362, #190, #11, .T. ) ;
#137 = CIRCLE ( 'NONE', #83, 9.250000000000000000 ) ;
#138 = CARTESIAN_POINT ( 'NONE',  ( 0.0000000000000000000, 0.0000000000000000000, 0.0000000000000000000 ) ) ;
#139 = FACE_OUTER_BOUND ( 'NONE', #49, .T. ) ;
#140 = LINE ( 'NONE', #370, #229 ) ;
#141 = DIRECTION ( 'NONE',  ( 0.0000000000000000000, 0.0000000000000000000, -1.000000000000000000 ) ) ;
#142 = VECTOR ( 'NONE', #71, 1000.000000000000000 ) ;
#143 = PRODUCT_RELATED_PRODUCT_CATEGORY ( 'part', '', ( #120 ) ) ;
#144 = AXIS2_PLACEMENT_3D ( 'NONE', #312, #57, #196 ) ;
#145 = CARTESIAN_POINT ( 'NONE',  ( -9.249999999999989342, 1.132798289211300712E-15, 42.24999999999999289 ) ) ;
#146 = LINE ( 'NONE', #281, #284 ) ;
#147 = CARTESIAN_POINT ( 'NONE',  ( 0.0000000000000000000, 0.0000000000000000000, -42.25000000000002132 ) ) ;
#148 = DIRECTION ( 'NONE',  ( -0.0000000000000000000, -0.0000000000000000000, 1.000000000000000000 ) ) ;
#149 = CARTESIAN_POINT ( 'NONE',  ( 9.249999999999994671, 0.0000000000000000000, 98.43369195224448731 ) ) ;
#150 = VERTEX_POINT ( 'NONE', #343 ) ;
#151 = CARTESIAN_POINT ( 'NONE',  ( -30.00000000000000000, 3.673940397442059178E-15, 39.99999999999999289 ) ) ;
#152 = DIRECTION ( 'NONE',  ( -0.0000000000000000000, -0.0000000000000000000, 1.000000000000000000 ) ) ;
#153 = VECTOR ( 'NONE', #350, 1000.000000000000000 ) ;
#154 = COLOUR_RGB ( '',0.2509803921568627416, 0.2509803921568627416, 0.2509803921568627416 ) ;
#155 = CARTESIAN_POINT ( 'NONE',  ( 0.0000000000000000000, 0.0000000000000000000, 98.43369195224448731 ) ) ;
#156 = ORIENTED_EDGE ( 'NONE', *, *, #238, .T. ) ;
#157 = VERTEX_POINT ( 'NONE', #86 ) ;
#158 = DIRECTION ( 'NONE',  ( -0.0000000000000000000, -0.0000000000000000000, 1.000000000000000000 ) ) ;
#159 = ORIENTED_EDGE ( 'NONE', *, *, #324, .F. ) ;
#160 = SURFACE_STYLE_USAGE ( .BOTH. , #98 ) ;
#161 = VERTEX_POINT ( 'NONE', #199 ) ;
#162 = FACE_BOUND ( 'NONE', #177, .T. ) ;
#163 = AXIS2_PLACEMENT_3D ( 'NONE', #252, #339, #340 ) ;
#164 = CIRCLE ( 'NONE', #327, 30.00000000000001066 ) ;
#165 = DIRECTION ( 'NONE',  ( 0.0000000000000000000, 0.0000000000000000000, 1.000000000000000000 ) ) ;
#166 = CARTESIAN_POINT ( 'NONE',  ( 12.24999999999998934, 0.0000000000000000000, 39.99999999999998579 ) ) ;
#167 = DIRECTION ( 'NONE',  ( -1.000000000000000000, 0.0000000000000000000, -0.0000000000000000000 ) ) ;
#168 = ADVANCED_FACE ( 'NONE', ( #162, #287 ), #353, .F. ) ;
#169 = DIRECTION ( 'NONE',  ( -0.0000000000000000000, -0.0000000000000000000, 1.000000000000000000 ) ) ;
#170 = SURFACE_STYLE_USAGE ( .BOTH. , #185 ) ;
#171 =( GEOMETRIC_REPRESENTATION_CONTEXT ( 3 ) GLOBAL_UNCERTAINTY_ASSIGNED_CONTEXT ( ( #51 ) ) GLOBAL_UNIT_ASSIGNED_CONTEXT ( ( #114, #60, #62 ) ) REPRESENTATION_CONTEXT ( 'NONE', 'WORKASPACE' ) );
#172 = DIRECTION ( 'NONE',  ( 1.000000000000000000, 0.0000000000000000000, 0.0000000000000000000 ) ) ;
#173 = DIRECTION ( 'NONE',  ( 1.000000000000000000, 0.0000000000000000000, 0.0000000000000000000 ) ) ;
#174 = EDGE_CURVE ( 'NONE', #157, #298, #352, .T. ) ;
#175 = LINE ( 'NONE', #149, #153 ) ;
#176 = CARTESIAN_POINT ( 'NONE',  ( 0.0000000000000000000, 0.0000000000000000000, 98.43369195224448731 ) ) ;
#177 = EDGE_LOOP ( 'NONE', ( #39, #33 ) ) ;
#178 = DIRECTION ( 'NONE',  ( 1.000000000000000000, 0.0000000000000000000, 0.0000000000000000000 ) ) ;
#179 = CARTESIAN_POINT ( 'NONE',  ( -30.00000000000001421, 3.673940397442060756E-15, -39.99999999999999289 ) ) ;
#180 = VECTOR ( 'NONE', #347, 1000.000000000000000 ) ;
#181 =( GEOMETRIC_REPRESENTATION_CONTEXT ( 3 ) GLOBAL_UNCERTAINTY_ASSIGNED_CONTEXT ( ( #288 ) ) GLOBAL_UNIT_ASSIGNED_CONTEXT ( ( #104, #189, #300 ) ) REPRESENTATION_CONTEXT ( 'NONE', 'WORKASPACE' ) );
#182 = CARTESIAN_POINT ( 'NONE',  ( 0.0000000000000000000, 0.0000000000000000000, -39.99999999999999289 ) ) ;
#183 = EDGE_CURVE ( 'NONE', #161, #363, #175, .T. ) ;
#184 = ORIENTED_EDGE ( 'NONE', *, *, #305, .F. ) ;
#185 = SURFACE_SIDE_STYLE ('',( #75 ) ) ;
#186 = ORIENTED_EDGE ( 'NONE', *, *, #191, .T. ) ;
#187 = SURFACE_STYLE_FILL_AREA ( #245 ) ;
#188 = VERTEX_POINT ( 'NONE', #266 ) ;
#189 =( NAMED_UNIT ( * ) PLANE_ANGLE_UNIT ( ) SI_UNIT ( $, .RADIAN. ) );
#190 = VERTEX_POINT ( 'NONE', #263 ) ;
#191 = EDGE_CURVE ( 'NONE', #210, #161, #137, .T. ) ;
#192 = EDGE_LOOP ( 'NONE', ( #9, #100, #236, #44 ) ) ;
#193 = DIRECTION ( 'NONE',  ( -0.0000000000000000000, -0.0000000000000000000, 1.000000000000000000 ) ) ;
#194 = AXIS2_PLACEMENT_3D ( 'NONE', #203, #66, #318 ) ;
#195 = CIRCLE ( 'NONE', #34, 9.250000000000000000 ) ;
#196 = DIRECTION ( 'NONE',  ( 1.000000000000000000, 0.0000000000000000000, 0.0000000000000000000 ) ) ;
#197 = PRESENTATION_STYLE_ASSIGNMENT (( #170 ) ) ;
#198 = PLANE ( 'NONE',  #265 ) ;
#199 = CARTESIAN_POINT ( 'NONE',  ( 9.250000000000000000, 0.0000000000000000000, -42.25000000000002132 ) ) ;
#200 = EDGE_CURVE ( 'NONE', #338, #271, #365, .T. ) ;
#201 = AXIS2_PLACEMENT_3D ( 'NONE', #138, #165, #337 ) ;
#202 = DIRECTION ( 'NONE',  ( 1.000000000000000000, 0.0000000000000000000, 0.0000000000000000000 ) ) ;
#203 = CARTESIAN_POINT ( 'NONE',  ( 0.0000000000000000000, 12.24999999999998934, 39.99999999999999289 ) ) ;
#204 = LINE ( 'NONE', #323, #214 ) ;
#205 = ORIENTED_EDGE ( 'NONE', *, *, #274, .T. ) ;
#206 = DIRECTION ( 'NONE',  ( 1.000000000000000000, 0.0000000000000000000, 0.0000000000000000000 ) ) ;
#207 = AXIS2_PLACEMENT_3D ( 'NONE', #31, #89, #294 ) ;
#208 = EDGE_LOOP ( 'NONE', ( #367, #156, #53, #184 ) ) ;
#209 = CARTESIAN_POINT ( 'NONE',  ( 0.0000000000000000000, 12.25000000000000000, -42.25000000000000711 ) ) ;
#210 = VERTEX_POINT ( 'NONE', #38 ) ;
#211 = DIRECTION ( 'NONE',  ( -0.0000000000000000000, -0.0000000000000000000, 1.000000000000000000 ) ) ;
#212 = ADVANCED_FACE ( 'NONE', ( #30 ), #3, .T. ) ;
#213 = LINE ( 'NONE', #132, #360 ) ;
#214 = VECTOR ( 'NONE', #211, 1000.000000000000000 ) ;
#215 = ORIENTED_EDGE ( 'NONE', *, *, #324, .T. ) ;
#216 = APPLICATION_PROTOCOL_DEFINITION ( 'draft international standard', 'automotive_design', 1998, #321 ) ;
#217 = ORIENTED_EDGE ( 'NONE', *, *, #200, .T. ) ;
#218 = DIRECTION ( 'NONE',  ( -0.0000000000000000000, -0.0000000000000000000, 1.000000000000000000 ) ) ;
#219 = ORIENTED_EDGE ( 'NONE', *, *, #371, .F. ) ;
#220 = VERTEX_POINT ( 'NONE', #151 ) ;
#221 = AXIS2_PLACEMENT_3D ( 'NONE', #227, #249, #84 ) ;
#222 = STYLED_ITEM ( 'NONE', ( #197 ), #303 ) ;
#223 = ORIENTED_EDGE ( 'NONE', *, *, #368, .F. ) ;
#224 = LINE ( 'NONE', #311, #259 ) ;
#225 = DIRECTION ( 'NONE',  ( -0.0000000000000000000, -0.0000000000000000000, 1.000000000000000000 ) ) ;
#226 = FACE_OUTER_BOUND ( 'NONE', #306, .T. ) ;
#227 = CARTESIAN_POINT ( 'NONE',  ( 0.0000000000000000000, 0.0000000000000000000, -42.25000000000002132 ) ) ;
#228 = CARTESIAN_POINT ( 'NONE',  ( 0.0000000000000000000, 0.0000000000000000000, 98.43369195224448731 ) ) ;
#229 = VECTOR ( 'NONE', #344, 1000.000000000000000 ) ;
#230 = PRESENTATION_LAYER_ASSIGNMENT (  '', '', ( #260 ) ) ;
#231 = DIRECTION ( 'NONE',  ( -0.0000000000000000000, -0.0000000000000000000, 1.000000000000000000 ) ) ;
#232 = DIRECTION ( 'NONE',  ( -0.0000000000000000000, -0.0000000000000000000, 1.000000000000000000 ) ) ;
#233 = DIRECTION ( 'NONE',  ( 1.000000000000000000, 0.0000000000000000000, 0.0000000000000000000 ) ) ;
#234 = ADVANCED_FACE ( 'NONE', ( #348, #7 ), #97, .F. ) ;
#235 = CARTESIAN_POINT ( 'NONE',  ( -12.25000000000000000, 1.500192328955507734E-15, 98.43369195224448731 ) ) ;
#236 = ORIENTED_EDGE ( 'NONE', *, *, #2, .T. ) ;
#237 = DIRECTION ( 'NONE',  ( -0.0000000000000000000, -0.0000000000000000000, 1.000000000000000000 ) ) ;
#238 = EDGE_CURVE ( 'NONE', #190, #298, #316, .T. ) ;
#239 = ORIENTED_EDGE ( 'NONE', *, *, #262, .T. ) ;
#240 = DIRECTION ( 'NONE',  ( -0.0000000000000000000, -0.0000000000000000000, 1.000000000000000000 ) ) ;
#241 = AXIS2_PLACEMENT_3D ( 'NONE', #280, #310, #26 ) ;
#242 = ORIENTED_EDGE ( 'NONE', *, *, #36, .F. ) ;
#243 = DIRECTION ( 'NONE',  ( 1.000000000000000000, 0.0000000000000000000, 0.0000000000000000000 ) ) ;
#244 = ORIENTED_EDGE ( 'NONE', *, *, #15, .F. ) ;
#245 = FILL_AREA_STYLE ('',( #106 ) ) ;
#246 = EDGE_LOOP ( 'NONE', ( #17, #239, #90, #107 ) ) ;
#247 =( NAMED_UNIT ( * ) PLANE_ANGLE_UNIT ( ) SI_UNIT ( $, .RADIAN. ) );
#248 = ORIENTED_EDGE ( 'NONE', *, *, #78, .F. ) ;
#249 = DIRECTION ( 'NONE',  ( -0.0000000000000000000, -0.0000000000000000000, 1.000000000000000000 ) ) ;
#250 = ADVANCED_FACE ( 'NONE', ( #124, #119 ), #258, .F. ) ;
#251 = APPLICATION_CONTEXT ( 'automotive_design' ) ;
#252 = CARTESIAN_POINT ( 'NONE',  ( 0.0000000000000000000, 0.0000000000000000000, -39.99999999999999289 ) ) ;
#253 = SHAPE_DEFINITION_REPRESENTATION ( #58, #303 ) ;
#254 = CARTESIAN_POINT ( 'NONE',  ( 0.0000000000000000000, 9.249999999999989342, 42.24999999999999289 ) ) ;
#255 = CYLINDRICAL_SURFACE ( 'NONE', #320, 9.249999999999994671 ) ;
#256 = FACE_OUTER_BOUND ( 'NONE', #74, .T. ) ;
#257 = EDGE_CURVE ( 'NONE', #363, #103, #351, .T. ) ;
#258 = PLANE ( 'NONE',  #40 ) ;
#259 = VECTOR ( 'NONE', #82, 1000.000000000000000 ) ;
#260 = STYLED_ITEM ( 'NONE', ( #329 ), #326 ) ;
#261 = DIRECTION ( 'NONE',  ( 1.000000000000000000, 0.0000000000000000000, 0.0000000000000000000 ) ) ;
#262 = EDGE_CURVE ( 'NONE', #188, #126, #88, .T. ) ;
#263 = CARTESIAN_POINT ( 'NONE',  ( -12.25000000000000000, 1.500192328955507734E-15, -42.25000000000002132 ) ) ;
#264 = DIRECTION ( 'NONE',  ( 1.000000000000000000, 0.0000000000000000000, 0.0000000000000000000 ) ) ;
#265 = AXIS2_PLACEMENT_3D ( 'NONE', #254, #141, #167 ) ;
#266 = CARTESIAN_POINT ( 'NONE',  ( -12.24999999999998934, 1.500192328955506551E-15, 39.99999999999998579 ) ) ;
#267 = EDGE_CURVE ( 'NONE', #188, #338, #10, .T. ) ;
#268 = ORIENTED_EDGE ( 'NONE', *, *, #305, .T. ) ;
#269 = CARTESIAN_POINT ( 'NONE',  ( 0.0000000000000000000, 0.0000000000000000000, -42.25000000000002132 ) ) ;
#270 = EDGE_LOOP ( 'NONE', ( #361, #302 ) ) ;
#271 = VERTEX_POINT ( 'NONE', #117 ) ;
#272 = AXIS2_PLACEMENT_3D ( 'NONE', #87, #283, #202 ) ;
#273 = EDGE_LOOP ( 'NONE', ( #336, #105 ) ) ;
#274 = EDGE_CURVE ( 'NONE', #271, #338, #328, .T. ) ;
#275 = ORIENTED_EDGE ( 'NONE', *, *, #274, .F. ) ;
#276 = CARTESIAN_POINT ( 'NONE',  ( 12.25000000000000000, 0.0000000000000000000, -42.25000000000002132 ) ) ;
#277 = VERTEX_POINT ( 'NONE', #179 ) ;
#278 = CIRCLE ( 'NONE', #314, 30.00000000000000000 ) ;
#279 = EDGE_CURVE ( 'NONE', #210, #103, #204, .T. ) ;
#280 = CARTESIAN_POINT ( 'NONE',  ( 0.0000000000000000000, 0.0000000000000000000, 98.43369195224448731 ) ) ;
#281 = CARTESIAN_POINT ( 'NONE',  ( 30.00000000000000711, 0.0000000000000000000, 98.43369195224448731 ) ) ;
#282 = UNCERTAINTY_MEASURE_WITH_UNIT (LENGTH_MEASURE( 1.000000000000000082E-05 ), #325, 'distance_accuracy_value', 'NONE');
#283 = DIRECTION ( 'NONE',  ( -0.0000000000000000000, -0.0000000000000000000, 1.000000000000000000 ) ) ;
#284 = VECTOR ( 'NONE', #85, 1000.000000000000000 ) ;
#285 = CIRCLE ( 'NONE', #346, 30.00000000000001066 ) ;
#286 = ADVANCED_FACE ( 'NONE', ( #67 ), #65, .T. ) ;
#287 = FACE_OUTER_BOUND ( 'NONE', #273, .T. ) ;
#288 = UNCERTAINTY_MEASURE_WITH_UNIT (LENGTH_MEASURE( 1.000000000000000082E-05 ), #104, 'distance_accuracy_value', 'NONE');
#289 = CARTESIAN_POINT ( 'NONE',  ( 0.0000000000000000000, 0.0000000000000000000, 39.99999999999999289 ) ) ;
#290 = DIRECTION ( 'NONE',  ( -0.0000000000000000000, -0.0000000000000000000, 1.000000000000000000 ) ) ;
#291 = EDGE_CURVE ( 'NONE', #220, #125, #278, .T. ) ;
#292 = CARTESIAN_POINT ( 'NONE',  ( 0.0000000000000000000, 0.0000000000000000000, 42.24999999999999289 ) ) ;
#293 = DIRECTION ( 'NONE',  ( 1.000000000000000000, 0.0000000000000000000, 0.0000000000000000000 ) ) ;
#294 = DIRECTION ( 'NONE',  ( 1.000000000000000000, 0.0000000000000000000, 0.0000000000000000000 ) ) ;
#295 =( NAMED_UNIT ( * ) SI_UNIT ( $, .STERADIAN. ) SOLID_ANGLE_UNIT ( ) );
#296 = EDGE_LOOP ( 'NONE', ( #319, #52, #268, #248 ) ) ;
#297 = DIRECTION ( 'NONE',  ( -0.0000000000000000000, -0.0000000000000000000, 1.000000000000000000 ) ) ;
#298 = VERTEX_POINT ( 'NONE', #21 ) ;
#299 = ADVANCED_FACE ( 'NONE', ( #48 ), #19, .T. ) ;
#300 =( NAMED_UNIT ( * ) SI_UNIT ( $, .STERADIAN. ) SOLID_ANGLE_UNIT ( ) );
#301 = AXIS2_PLACEMENT_3D ( 'NONE', #342, #193, #111 ) ;
#302 = ORIENTED_EDGE ( 'NONE', *, *, #317, .F. ) ;
#303 = ADVANCED_BREP_SHAPE_REPRESENTATION ( '1903FEFA-A7DD-4566-8194-E6D66C0AE889', ( #326, #201 ), #181 ) ;
#304 = ORIENTED_EDGE ( 'NONE', *, *, #50, .F. ) ;
#305 = EDGE_CURVE ( 'NONE', #362, #157, #213, .T. ) ;
#306 = EDGE_LOOP ( 'NONE', ( #205, #217 ) ) ;
#307 = PRESENTATION_LAYER_ASSIGNMENT (  '', '', ( #222 ) ) ;
#308 = FACE_OUTER_BOUND ( 'NONE', #192, .T. ) ;
#309 = PRODUCT_CONTEXT ( 'NONE', #321, 'mechanical' ) ;
#310 = DIRECTION ( 'NONE',  ( -0.0000000000000000000, -0.0000000000000000000, 1.000000000000000000 ) ) ;
#311 = CARTESIAN_POINT ( 'NONE',  ( 12.24999999999998934, 0.0000000000000000000, 98.43369195224448731 ) ) ;
#312 = CARTESIAN_POINT ( 'NONE',  ( 0.0000000000000000000, 0.0000000000000000000, 98.43369195224448731 ) ) ;
#313 = CIRCLE ( 'NONE', #301, 30.00000000000000000 ) ;
#314 = AXIS2_PLACEMENT_3D ( 'NONE', #289, #231, #243 ) ;
#315 = CYLINDRICAL_SURFACE ( 'NONE', #144, 12.25000000000000000 ) ;
#316 = LINE ( 'NONE', #235, #142 ) ;
#317 = EDGE_CURVE ( 'NONE', #190, #362, #54, .T. ) ;
#318 = DIRECTION ( 'NONE',  ( -1.000000000000000000, 0.0000000000000000000, -0.0000000000000000000 ) ) ;
#319 = ORIENTED_EDGE ( 'NONE', *, *, #238, .F. ) ;
#320 = AXIS2_PLACEMENT_3D ( 'NONE', #374, #225, #172 ) ;
#321 = APPLICATION_CONTEXT ( 'automotive_design' ) ;
#322 = DIRECTION ( 'NONE',  ( 1.000000000000000000, 0.0000000000000000000, 0.0000000000000000000 ) ) ;
#323 = CARTESIAN_POINT ( 'NONE',  ( -9.249999999999994671, 1.132798289211300909E-15, 98.43369195224448731 ) ) ;
#324 = EDGE_CURVE ( 'NONE', #150, #277, #285, .T. ) ;
#325 =( LENGTH_UNIT ( ) NAMED_UNIT ( * ) SI_UNIT ( .MILLI., .METRE. ) );
#326 = MANIFOLD_SOLID_BREP ( 'Revolve1', #18 ) ;
#327 = AXIS2_PLACEMENT_3D ( 'NONE', #332, #240, #79 ) ;
#328 = CIRCLE ( 'NONE', #5, 12.24999999999998934 ) ;
#329 = PRESENTATION_STYLE_ASSIGNMENT (( #160 ) ) ;
#330 = FILL_AREA_STYLE ('',( #16 ) ) ;
#331 = ORIENTED_EDGE ( 'NONE', *, *, #183, .T. ) ;
#332 = CARTESIAN_POINT ( 'NONE',  ( 0.0000000000000000000, 0.0000000000000000000, -39.99999999999999289 ) ) ;
#333 = ORIENTED_EDGE ( 'NONE', *, *, #267, .T. ) ;
#334 = DIRECTION ( 'NONE',  ( -0.0000000000000000000, -0.0000000000000000000, 1.000000000000000000 ) ) ;
#335 = AXIS2_PLACEMENT_3D ( 'NONE', #292, #232, #293 ) ;
#336 = ORIENTED_EDGE ( 'NONE', *, *, #69, .T. ) ;
#337 = DIRECTION ( 'NONE',  ( 1.000000000000000000, 0.0000000000000000000, 0.0000000000000000000 ) ) ;
#338 = VERTEX_POINT ( 'NONE', #73 ) ;
#339 = DIRECTION ( 'NONE',  ( -0.0000000000000000000, -0.0000000000000000000, 1.000000000000000000 ) ) ;
#340 = DIRECTION ( 'NONE',  ( 1.000000000000000000, 0.0000000000000000000, 0.0000000000000000000 ) ) ;
#341 = CIRCLE ( 'NONE', #24, 9.249999999999989342 ) ;
#342 = CARTESIAN_POINT ( 'NONE',  ( 0.0000000000000000000, 0.0000000000000000000, 39.99999999999999289 ) ) ;
#343 = CARTESIAN_POINT ( 'NONE',  ( 30.00000000000001066, 0.0000000000000000000, -39.99999999999999289 ) ) ;
#344 = DIRECTION ( 'NONE',  ( -0.0000000000000000000, -0.0000000000000000000, 1.000000000000000000 ) ) ;
#345 = AXIS2_PLACEMENT_3D ( 'NONE', #95, #237, #264 ) ;
#346 = AXIS2_PLACEMENT_3D ( 'NONE', #182, #130, #355 ) ;
#347 = DIRECTION ( 'NONE',  ( -0.0000000000000000000, -0.0000000000000000000, 1.000000000000000000 ) ) ;
#348 = FACE_OUTER_BOUND ( 'NONE', #68, .T. ) ;
#349 = ORIENTED_EDGE ( 'NONE', *, *, #291, .F. ) ;
#350 = DIRECTION ( 'NONE',  ( -0.0000000000000000000, -0.0000000000000000000, 1.000000000000000000 ) ) ;
#351 = CIRCLE ( 'NONE', #335, 9.249999999999989342 ) ;
#352 = CIRCLE ( 'NONE', #112, 12.25000000000000000 ) ;
#353 = PLANE ( 'NONE',  #194 ) ;
#354 = DIRECTION ( 'NONE',  ( 1.000000000000000000, 0.0000000000000000000, 0.0000000000000000000 ) ) ;
#355 = DIRECTION ( 'NONE',  ( 1.000000000000000000, 0.0000000000000000000, 0.0000000000000000000 ) ) ;
#356 = ORIENTED_EDGE ( 'NONE', *, *, #50, .T. ) ;
#357 = PRODUCT_DEFINITION ( 'UNKNOWN', '', #12, #134 ) ;
#358 = AXIS2_PLACEMENT_3D ( 'NONE', #121, #8, #206 ) ;
#359 = CARTESIAN_POINT ( 'NONE',  ( 0.0000000000000000000, 0.0000000000000000000, -42.25000000000002132 ) ) ;
#360 = VECTOR ( 'NONE', #334, 1000.000000000000000 ) ;
#361 = ORIENTED_EDGE ( 'NONE', *, *, #136, .F. ) ;
#362 = VERTEX_POINT ( 'NONE', #276 ) ;
#363 = VERTEX_POINT ( 'NONE', #45 ) ;
#364 = DIRECTION ( 'NONE',  ( 1.000000000000000000, 0.0000000000000000000, 0.0000000000000000000 ) ) ;
#365 = CIRCLE ( 'NONE', #373, 12.24999999999998934 ) ;
#366 = MECHANICAL_DESIGN_GEOMETRIC_PRESENTATION_REPRESENTATION (  '', ( #222 ), #171 ) ;
#367 = ORIENTED_EDGE ( 'NONE', *, *, #136, .T. ) ;
#368 = EDGE_CURVE ( 'NONE', #161, #210, #195, .T. ) ;
#369 = CARTESIAN_POINT ( 'NONE',  ( 0.0000000000000000000, 0.0000000000000000000, 39.99999999999998579 ) ) ;
#370 = CARTESIAN_POINT ( 'NONE',  ( -30.00000000000000711, 3.673940397442059967E-15, 98.43369195224448731 ) ) ;
#371 = EDGE_CURVE ( 'NONE', #277, #150, #164, .T. ) ;
#372 = CYLINDRICAL_SURFACE ( 'NONE', #128, 12.24999999999998934 ) ;
#373 = AXIS2_PLACEMENT_3D ( 'NONE', #70, #93, #261 ) ;
#374 = CARTESIAN_POINT ( 'NONE',  ( 0.0000000000000000000, 0.0000000000000000000, 98.43369195224448731 ) ) ;
ENDSEC;
END-ISO-10303-21;
