ISO-10303-21;
HEADER;
FILE_DESCRIPTION (( 'STEP AP214' ),
    '1' );
FILE_NAME ('0093E074-76A8-4FEF-AA89-E35E8D3041E7.STEP',
    '2023-08-02T10:56:52',
    ( '' ),
    ( '' ),
    'SwSTEP 2.0',
    'SolidWorks 2022',
    '' );
FILE_SCHEMA (( 'AUTOMOTIVE_DESIGN' ));
ENDSEC;

DATA;
#1 = DIRECTION ( 'NONE',  ( 1.000000000000000000, 0.0000000000000000000, 0.0000000000000000000 ) ) ;
#2 = CARTESIAN_POINT ( 'NONE',  ( 0.0000000000000000000, 0.0000000000000000000, -39.99999999999999289 ) ) ;
#3 = CARTESIAN_POINT ( 'NONE',  ( 12.24999999999998934, 0.0000000000000000000, 40.99999999999999289 ) ) ;
#4 = EDGE_CURVE ( 'NONE', #41, #100, #333, .T. ) ;
#5 = EDGE_CURVE ( 'NONE', #78, #20, #42, .T. ) ;
#6 = CIRCLE ( 'NONE', #242, 30.00000000000001066 ) ;
#7 = LINE ( 'NONE', #183, #212 ) ;
#8 = ORIENTED_EDGE ( 'NONE', *, *, #348, .T. ) ;
#9 = LINE ( 'NONE', #129, #328 ) ;
#10 = ORIENTED_EDGE ( 'NONE', *, *, #141, .T. ) ;
#11 = FACE_OUTER_BOUND ( 'NONE', #268, .T. ) ;
#12 = VECTOR ( 'NONE', #149, 1000.000000000000000 ) ;
#13 = AXIS2_PLACEMENT_3D ( 'NONE', #356, #14, #158 ) ;
#14 = DIRECTION ( 'NONE',  ( -0.0000000000000000000, -0.0000000000000000000, 1.000000000000000000 ) ) ;
#15 = EDGE_LOOP ( 'NONE', ( #138, #114 ) ) ;
#16 = FACE_BOUND ( 'NONE', #39, .T. ) ;
#17 = FACE_BOUND ( 'NONE', #94, .T. ) ;
#18 = EDGE_CURVE ( 'NONE', #217, #251, #123, .T. ) ;
#19 = CIRCLE ( 'NONE', #54, 12.24999999999998934 ) ;
#20 = VERTEX_POINT ( 'NONE', #162 ) ;
#21 = STYLED_ITEM ( 'NONE', ( #72 ), #372 ) ;
#22 = DIRECTION ( 'NONE',  ( -0.0000000000000000000, -0.0000000000000000000, 1.000000000000000000 ) ) ;
#23 = ADVANCED_FACE ( 'NONE', ( #252, #17 ), #134, .F. ) ;
#24 = EDGE_CURVE ( 'NONE', #266, #132, #197, .T. ) ;
#25 = ORIENTED_EDGE ( 'NONE', *, *, #291, .T. ) ;
#26 = VERTEX_POINT ( 'NONE', #324 ) ;
#27 = DIRECTION ( 'NONE',  ( 1.000000000000000000, 0.0000000000000000000, 0.0000000000000000000 ) ) ;
#28 = LINE ( 'NONE', #29, #55 ) ;
#29 = CARTESIAN_POINT ( 'NONE',  ( -12.25000000000000000, 1.500192328955507734E-15, 98.43369195224448731 ) ) ;
#30 = CIRCLE ( 'NONE', #174, 12.24999999999998934 ) ;
#31 = CARTESIAN_POINT ( 'NONE',  ( 12.25000000000000000, 0.0000000000000000000, 98.43369195224448731 ) ) ;
#32 = CYLINDRICAL_SURFACE ( 'NONE', #247, 12.24999999999998934 ) ;
#33 = CARTESIAN_POINT ( 'NONE',  ( 0.0000000000000000000, 12.24999999999998934, 39.99999999999999289 ) ) ;
#34 = EDGE_CURVE ( 'NONE', #251, #217, #30, .T. ) ;
#35 = EDGE_LOOP ( 'NONE', ( #151, #44, #51, #68 ) ) ;
#36 = DIRECTION ( 'NONE',  ( -0.0000000000000000000, -0.0000000000000000000, 1.000000000000000000 ) ) ;
#37 = VERTEX_POINT ( 'NONE', #180 ) ;
#38 = FACE_OUTER_BOUND ( 'NONE', #315, .T. ) ;
#39 = EDGE_LOOP ( 'NONE', ( #226, #305 ) ) ;
#40 = CARTESIAN_POINT ( 'NONE',  ( 0.0000000000000000000, 0.0000000000000000000, 98.43369195224448731 ) ) ;
#41 = VERTEX_POINT ( 'NONE', #233 ) ;
#42 = CIRCLE ( 'NONE', #353, 30.00000000000000000 ) ;
#43 = DIRECTION ( 'NONE',  ( 1.000000000000000000, 0.0000000000000000000, 0.0000000000000000000 ) ) ;
#44 = ORIENTED_EDGE ( 'NONE', *, *, #292, .T. ) ;
#45 = DIRECTION ( 'NONE',  ( 1.000000000000000000, 0.0000000000000000000, 0.0000000000000000000 ) ) ;
#46 = ORIENTED_EDGE ( 'NONE', *, *, #157, .T. ) ;
#47 = EDGE_CURVE ( 'NONE', #214, #108, #6, .T. ) ;
#48 = EDGE_LOOP ( 'NONE', ( #271, #8 ) ) ;
#49 =( GEOMETRIC_REPRESENTATION_CONTEXT ( 3 ) GLOBAL_UNCERTAINTY_ASSIGNED_CONTEXT ( ( #145 ) ) GLOBAL_UNIT_ASSIGNED_CONTEXT ( ( #200, #161, #171 ) ) REPRESENTATION_CONTEXT ( 'NONE', 'WORKASPACE' ) );
#50 = DIRECTION ( 'NONE',  ( -0.0000000000000000000, -0.0000000000000000000, 1.000000000000000000 ) ) ;
#51 = ORIENTED_EDGE ( 'NONE', *, *, #104, .T. ) ;
#52 = ORIENTED_EDGE ( 'NONE', *, *, #141, .F. ) ;
#53 = DIRECTION ( 'NONE',  ( 1.000000000000000000, 0.0000000000000000000, 0.0000000000000000000 ) ) ;
#54 = AXIS2_PLACEMENT_3D ( 'NONE', #256, #57, #58 ) ;
#55 = VECTOR ( 'NONE', #146, 1000.000000000000000 ) ;
#56 = LINE ( 'NONE', #347, #106 ) ;
#57 = DIRECTION ( 'NONE',  ( -0.0000000000000000000, -0.0000000000000000000, 1.000000000000000000 ) ) ;
#58 = DIRECTION ( 'NONE',  ( 1.000000000000000000, 0.0000000000000000000, 0.0000000000000000000 ) ) ;
#59 = DIRECTION ( 'NONE',  ( -0.0000000000000000000, -0.0000000000000000000, 1.000000000000000000 ) ) ;
#60 = DIRECTION ( 'NONE',  ( -0.0000000000000000000, -0.0000000000000000000, 1.000000000000000000 ) ) ;
#61 = CYLINDRICAL_SURFACE ( 'NONE', #187, 12.25000000000000000 ) ;
#62 = AXIS2_PLACEMENT_3D ( 'NONE', #317, #88, #53 ) ;
#63 = PRODUCT_DEFINITION_FORMATION_WITH_SPECIFIED_SOURCE ( 'ANY', '', #64, .NOT_KNOWN. ) ;
#64 = PRODUCT ( '0093E074-76A8-4FEF-AA89-E35E8D3041E7', '0093E074-76A8-4FEF-AA89-E35E8D3041E7', '', ( #228 ) ) ;
#65 = FACE_OUTER_BOUND ( 'NONE', #310, .T. ) ;
#66 = EDGE_CURVE ( 'NONE', #37, #185, #179, .T. ) ;
#67 = CARTESIAN_POINT ( 'NONE',  ( -12.25000000000000000, 1.500192328955507734E-15, -40.99999999999999289 ) ) ;
#68 = ORIENTED_EDGE ( 'NONE', *, *, #257, .F. ) ;
#69 = FACE_OUTER_BOUND ( 'NONE', #364, .T. ) ;
#70 = EDGE_CURVE ( 'NONE', #37, #26, #319, .T. ) ;
#71 = AXIS2_PLACEMENT_3D ( 'NONE', #33, #188, #190 ) ;
#72 = PRESENTATION_STYLE_ASSIGNMENT (( #314 ) ) ;
#73 = EDGE_LOOP ( 'NONE', ( #243, #368, #109, #52 ) ) ;
#74 = ORIENTED_EDGE ( 'NONE', *, *, #143, .T. ) ;
#75 = FILL_AREA_STYLE ('',( #131 ) ) ;
#76 = ORIENTED_EDGE ( 'NONE', *, *, #292, .F. ) ;
#77 = DIRECTION ( 'NONE',  ( 0.0000000000000000000, 0.0000000000000000000, 1.000000000000000000 ) ) ;
#78 = VERTEX_POINT ( 'NONE', #293 ) ;
#79 = UNCERTAINTY_MEASURE_WITH_UNIT (LENGTH_MEASURE( 1.000000000000000082E-05 ), #105, 'distance_accuracy_value', 'NONE');
#80 = ORIENTED_EDGE ( 'NONE', *, *, #176, .F. ) ;
#81 = DIRECTION ( 'NONE',  ( 1.000000000000000000, 0.0000000000000000000, 0.0000000000000000000 ) ) ;
#82 = CARTESIAN_POINT ( 'NONE',  ( 0.0000000000000000000, 0.0000000000000000000, 98.43369195224448731 ) ) ;
#83 = CIRCLE ( 'NONE', #62, 30.00000000000001066 ) ;
#84 = CIRCLE ( 'NONE', #284, 30.00000000000000000 ) ;
#85 = DIRECTION ( 'NONE',  ( -0.0000000000000000000, -0.0000000000000000000, 1.000000000000000000 ) ) ;
#86 = EDGE_CURVE ( 'NONE', #132, #266, #19, .T. ) ;
#87 = SHAPE_DEFINITION_REPRESENTATION ( #133, #286 ) ;
#88 = DIRECTION ( 'NONE',  ( -0.0000000000000000000, -0.0000000000000000000, 1.000000000000000000 ) ) ;
#89 = EDGE_CURVE ( 'NONE', #26, #115, #259, .T. ) ;
#90 = FACE_OUTER_BOUND ( 'NONE', #73, .T. ) ;
#91 = AXIS2_PLACEMENT_3D ( 'NONE', #360, #199, #313 ) ;
#92 = DIRECTION ( 'NONE',  ( -0.0000000000000000000, -0.0000000000000000000, 1.000000000000000000 ) ) ;
#93 = CARTESIAN_POINT ( 'NONE',  ( 0.0000000000000000000, 0.0000000000000000000, 40.99999999999999289 ) ) ;
#94 = EDGE_LOOP ( 'NONE', ( #97, #74 ) ) ;
#95 = PLANE ( 'NONE',  #231 ) ;
#96 = EDGE_CURVE ( 'NONE', #108, #78, #258, .T. ) ;
#97 = ORIENTED_EDGE ( 'NONE', *, *, #89, .T. ) ;
#98 = AXIS2_PLACEMENT_3D ( 'NONE', #337, #77, #1 ) ;
#99 = CYLINDRICAL_SURFACE ( 'NONE', #139, 12.25000000000000000 ) ;
#100 = VERTEX_POINT ( 'NONE', #121 ) ;
#101 = DIRECTION ( 'NONE',  ( 1.000000000000000000, 0.0000000000000000000, 0.0000000000000000000 ) ) ;
#102 = ORIENTED_EDGE ( 'NONE', *, *, #182, .T. ) ;
#103 = EDGE_CURVE ( 'NONE', #251, #266, #234, .T. ) ;
#104 = EDGE_CURVE ( 'NONE', #299, #201, #263, .T. ) ;
#105 =( LENGTH_UNIT ( ) NAMED_UNIT ( * ) SI_UNIT ( .MILLI., .METRE. ) );
#106 = VECTOR ( 'NONE', #202, 1000.000000000000000 ) ;
#107 =( GEOMETRIC_REPRESENTATION_CONTEXT ( 3 ) GLOBAL_UNCERTAINTY_ASSIGNED_CONTEXT ( ( #363 ) ) GLOBAL_UNIT_ASSIGNED_CONTEXT ( ( #276, #365, #163 ) ) REPRESENTATION_CONTEXT ( 'NONE', 'WORKASPACE' ) );
#108 = VERTEX_POINT ( 'NONE', #295 ) ;
#109 = ORIENTED_EDGE ( 'NONE', *, *, #86, .F. ) ;
#110 = ORIENTED_EDGE ( 'NONE', *, *, #89, .F. ) ;
#111 = SURFACE_STYLE_USAGE ( .BOTH. , #218 ) ;
#112 = AXIS2_PLACEMENT_3D ( 'NONE', #148, #59, #373 ) ;
#113 = CIRCLE ( 'NONE', #265, 9.250000000000000000 ) ;
#114 = ORIENTED_EDGE ( 'NONE', *, *, #34, .F. ) ;
#115 = VERTEX_POINT ( 'NONE', #346 ) ;
#116 = DIRECTION ( 'NONE',  ( -0.0000000000000000000, -0.0000000000000000000, 1.000000000000000000 ) ) ;
#117 = CARTESIAN_POINT ( 'NONE',  ( 0.0000000000000000000, 0.0000000000000000000, 40.99999999999999289 ) ) ;
#118 = AXIS2_PLACEMENT_3D ( 'NONE', #164, #136, #45 ) ;
#119 = APPLICATION_CONTEXT ( 'automotive_design' ) ;
#120 = DIRECTION ( 'NONE',  ( 1.000000000000000000, 0.0000000000000000000, 0.0000000000000000000 ) ) ;
#121 = CARTESIAN_POINT ( 'NONE',  ( -9.250000000000001776, 1.132798289211301698E-15, -40.99999999999999289 ) ) ;
#122 = CARTESIAN_POINT ( 'NONE',  ( 0.0000000000000000000, 0.0000000000000000000, 98.43369195224448731 ) ) ;
#123 = CIRCLE ( 'NONE', #118, 12.24999999999998934 ) ;
#124 = DIRECTION ( 'NONE',  ( -0.0000000000000000000, -0.0000000000000000000, 1.000000000000000000 ) ) ;
#125 = EDGE_LOOP ( 'NONE', ( #355, #169 ) ) ;
#126 = DIRECTION ( 'NONE',  ( -0.0000000000000000000, -0.0000000000000000000, 1.000000000000000000 ) ) ;
#127 = CARTESIAN_POINT ( 'NONE',  ( -12.24999999999998934, 1.500192328955506551E-15, 40.99999999999999289 ) ) ;
#128 = AXIS2_PLACEMENT_3D ( 'NONE', #175, #227, #27 ) ;
#129 = CARTESIAN_POINT ( 'NONE',  ( 9.249999999999994671, 0.0000000000000000000, 98.43369195224448731 ) ) ;
#130 = ORIENTED_EDGE ( 'NONE', *, *, #96, .T. ) ;
#131 = FILL_AREA_STYLE_COLOUR ( '', #236 ) ;
#132 = VERTEX_POINT ( 'NONE', #3 ) ;
#133 = PRODUCT_DEFINITION_SHAPE ( 'NONE', 'NONE',  #225 ) ;
#134 = PLANE ( 'NONE',  #186 ) ;
#135 = ORIENTED_EDGE ( 'NONE', *, *, #4, .T. ) ;
#136 = DIRECTION ( 'NONE',  ( -0.0000000000000000000, -0.0000000000000000000, 1.000000000000000000 ) ) ;
#137 = SURFACE_STYLE_FILL_AREA ( #278 ) ;
#138 = ORIENTED_EDGE ( 'NONE', *, *, #18, .F. ) ;
#139 = AXIS2_PLACEMENT_3D ( 'NONE', #351, #92, #209 ) ;
#140 = ORIENTED_EDGE ( 'NONE', *, *, #257, .T. ) ;
#141 = EDGE_CURVE ( 'NONE', #217, #132, #56, .T. ) ;
#142 = DIRECTION ( 'NONE',  ( -0.0000000000000000000, -0.0000000000000000000, 1.000000000000000000 ) ) ;
#143 = EDGE_CURVE ( 'NONE', #115, #26, #318, .T. ) ;
#144 = DIRECTION ( 'NONE',  ( -0.0000000000000000000, -0.0000000000000000000, 1.000000000000000000 ) ) ;
#145 = UNCERTAINTY_MEASURE_WITH_UNIT (LENGTH_MEASURE( 1.000000000000000082E-05 ), #200, 'distance_accuracy_value', 'NONE');
#146 = DIRECTION ( 'NONE',  ( -0.0000000000000000000, -0.0000000000000000000, 1.000000000000000000 ) ) ;
#147 = AXIS2_PLACEMENT_3D ( 'NONE', #270, #267, #240 ) ;
#148 = CARTESIAN_POINT ( 'NONE',  ( 0.0000000000000000000, 0.0000000000000000000, -39.99999999999999289 ) ) ;
#149 = DIRECTION ( 'NONE',  ( -0.0000000000000000000, -0.0000000000000000000, 1.000000000000000000 ) ) ;
#150 = FACE_BOUND ( 'NONE', #195, .T. ) ;
#151 = ORIENTED_EDGE ( 'NONE', *, *, #291, .F. ) ;
#152 = AXIS2_PLACEMENT_3D ( 'NONE', #374, #116, #120 ) ;
#153 = CARTESIAN_POINT ( 'NONE',  ( 0.0000000000000000000, 0.0000000000000000000, 98.43369195224448731 ) ) ;
#154 = DIRECTION ( 'NONE',  ( 1.000000000000000000, 0.0000000000000000000, 0.0000000000000000000 ) ) ;
#155 = ORIENTED_EDGE ( 'NONE', *, *, #47, .T. ) ;
#156 = ADVANCED_FACE ( 'NONE', ( #90 ), #32, .T. ) ;
#157 = EDGE_CURVE ( 'NONE', #108, #214, #83, .T. ) ;
#158 = DIRECTION ( 'NONE',  ( 1.000000000000000000, 0.0000000000000000000, 0.0000000000000000000 ) ) ;
#159 = MECHANICAL_DESIGN_GEOMETRIC_PRESENTATION_REPRESENTATION (  '', ( #21 ), #107 ) ;
#160 = FACE_OUTER_BOUND ( 'NONE', #301, .T. ) ;
#161 =( NAMED_UNIT ( * ) PLANE_ANGLE_UNIT ( ) SI_UNIT ( $, .RADIAN. ) );
#162 = CARTESIAN_POINT ( 'NONE',  ( -30.00000000000000000, 3.673940397442059178E-15, 39.99999999999999289 ) ) ;
#163 =( NAMED_UNIT ( * ) SI_UNIT ( $, .STERADIAN. ) SOLID_ANGLE_UNIT ( ) );
#164 = CARTESIAN_POINT ( 'NONE',  ( 0.0000000000000000000, 0.0000000000000000000, 39.99999999999998579 ) ) ;
#165 = CIRCLE ( 'NONE', #128, 12.25000000000000000 ) ;
#166 = COLOUR_RGB ( '',0.2509803921568627416, 0.2509803921568627416, 0.2509803921568627416 ) ;
#167 = ORIENTED_EDGE ( 'NONE', *, *, #157, .F. ) ;
#168 = CARTESIAN_POINT ( 'NONE',  ( 0.0000000000000000000, 0.0000000000000000000, 39.99999999999999289 ) ) ;
#169 = ORIENTED_EDGE ( 'NONE', *, *, #170, .F. ) ;
#170 = EDGE_CURVE ( 'NONE', #185, #37, #165, .T. ) ;
#171 =( NAMED_UNIT ( * ) SI_UNIT ( $, .STERADIAN. ) SOLID_ANGLE_UNIT ( ) );
#172 = ADVANCED_FACE ( 'NONE', ( #371 ), #344, .F. ) ;
#173 = ORIENTED_EDGE ( 'NONE', *, *, #70, .F. ) ;
#174 = AXIS2_PLACEMENT_3D ( 'NONE', #287, #321, #261 ) ;
#175 = CARTESIAN_POINT ( 'NONE',  ( 0.0000000000000000000, 0.0000000000000000000, -40.99999999999999289 ) ) ;
#176 = EDGE_CURVE ( 'NONE', #214, #20, #177, .T. ) ;
#177 = LINE ( 'NONE', #288, #361 ) ;
#178 = DIRECTION ( 'NONE',  ( -0.0000000000000000000, -0.0000000000000000000, 1.000000000000000000 ) ) ;
#179 = CIRCLE ( 'NONE', #229, 12.25000000000000000 ) ;
#180 = CARTESIAN_POINT ( 'NONE',  ( 12.25000000000000000, 0.0000000000000000000, -40.99999999999999289 ) ) ;
#181 = MECHANICAL_DESIGN_GEOMETRIC_PRESENTATION_REPRESENTATION (  '', ( #203 ), #49 ) ;
#182 = EDGE_CURVE ( 'NONE', #185, #115, #28, .T. ) ;
#183 = CARTESIAN_POINT ( 'NONE',  ( -9.249999999999994671, 1.132798289211300909E-15, 98.43369195224448731 ) ) ;
#184 = CARTESIAN_POINT ( 'NONE',  ( 0.0000000000000000000, 0.0000000000000000000, 98.43369195224448731 ) ) ;
#185 = VERTEX_POINT ( 'NONE', #67 ) ;
#186 = AXIS2_PLACEMENT_3D ( 'NONE', #366, #246, #279 ) ;
#187 = AXIS2_PLACEMENT_3D ( 'NONE', #184, #36, #154 ) ;
#188 = DIRECTION ( 'NONE',  ( 0.0000000000000000000, 0.0000000000000000000, -1.000000000000000000 ) ) ;
#189 = ORIENTED_EDGE ( 'NONE', *, *, #303, .T. ) ;
#190 = DIRECTION ( 'NONE',  ( -1.000000000000000000, 0.0000000000000000000, -0.0000000000000000000 ) ) ;
#191 = CYLINDRICAL_SURFACE ( 'NONE', #298, 12.24999999999998934 ) ;
#192 = CLOSED_SHELL ( 'NONE', ( #289, #241, #156, #172, #230, #316, #245, #220, #269, #342, #23, #311 ) ) ;
#193 = PRESENTATION_LAYER_ASSIGNMENT (  '', '', ( #203 ) ) ;
#194 = ORIENTED_EDGE ( 'NONE', *, *, #182, .F. ) ;
#195 = EDGE_LOOP ( 'NONE', ( #135, #25 ) ) ;
#196 = CARTESIAN_POINT ( 'NONE',  ( 0.0000000000000000000, 0.0000000000000000000, 39.99999999999999289 ) ) ;
#197 = CIRCLE ( 'NONE', #91, 12.24999999999998934 ) ;
#198 = DIRECTION ( 'NONE',  ( -0.0000000000000000000, -0.0000000000000000000, 1.000000000000000000 ) ) ;
#199 = DIRECTION ( 'NONE',  ( -0.0000000000000000000, -0.0000000000000000000, 1.000000000000000000 ) ) ;
#200 =( LENGTH_UNIT ( ) NAMED_UNIT ( * ) SI_UNIT ( .MILLI., .METRE. ) );
#201 = VERTEX_POINT ( 'NONE', #296 ) ;
#202 = DIRECTION ( 'NONE',  ( -0.0000000000000000000, -0.0000000000000000000, 1.000000000000000000 ) ) ;
#203 = STYLED_ITEM ( 'NONE', ( #334 ), #286 ) ;
#204 = CARTESIAN_POINT ( 'NONE',  ( 30.00000000000000711, 0.0000000000000000000, 98.43369195224448731 ) ) ;
#205 = DIRECTION ( 'NONE',  ( 1.000000000000000000, 0.0000000000000000000, 0.0000000000000000000 ) ) ;
#206 = DIRECTION ( 'NONE',  ( -0.0000000000000000000, -0.0000000000000000000, 1.000000000000000000 ) ) ;
#207 = DIRECTION ( 'NONE',  ( -0.0000000000000000000, -0.0000000000000000000, 1.000000000000000000 ) ) ;
#208 =( GEOMETRIC_REPRESENTATION_CONTEXT ( 3 ) GLOBAL_UNCERTAINTY_ASSIGNED_CONTEXT ( ( #79 ) ) GLOBAL_UNIT_ASSIGNED_CONTEXT ( ( #105, #307, #250 ) ) REPRESENTATION_CONTEXT ( 'NONE', 'WORKASPACE' ) );
#209 = DIRECTION ( 'NONE',  ( 1.000000000000000000, 0.0000000000000000000, 0.0000000000000000000 ) ) ;
#210 = CARTESIAN_POINT ( 'NONE',  ( 0.0000000000000000000, 12.25000000000000000, -41.00000000000000711 ) ) ;
#211 = CYLINDRICAL_SURFACE ( 'NONE', #13, 30.00000000000000711 ) ;
#212 = VECTOR ( 'NONE', #124, 1000.000000000000000 ) ;
#213 = DIRECTION ( 'NONE',  ( -0.0000000000000000000, -0.0000000000000000000, 1.000000000000000000 ) ) ;
#214 = VERTEX_POINT ( 'NONE', #302 ) ;
#215 = DIRECTION ( 'NONE',  ( 1.000000000000000000, 0.0000000000000000000, 0.0000000000000000000 ) ) ;
#216 = CIRCLE ( 'NONE', #339, 9.249999999999989342 ) ;
#217 = VERTEX_POINT ( 'NONE', #329 ) ;
#218 = SURFACE_SIDE_STYLE ('',( #137 ) ) ;
#219 = ORIENTED_EDGE ( 'NONE', *, *, #24, .F. ) ;
#220 = ADVANCED_FACE ( 'NONE', ( #160 ), #191, .T. ) ;
#221 = ORIENTED_EDGE ( 'NONE', *, *, #66, .T. ) ;
#222 = AXIS2_PLACEMENT_3D ( 'NONE', #280, #22, #283 ) ;
#223 = APPLICATION_PROTOCOL_DEFINITION ( 'draft international standard', 'automotive_design', 1998, #119 ) ;
#224 = ORIENTED_EDGE ( 'NONE', *, *, #4, .F. ) ;
#225 = PRODUCT_DEFINITION ( 'UNKNOWN', '', #63, #294 ) ;
#226 = ORIENTED_EDGE ( 'NONE', *, *, #303, .F. ) ;
#227 = DIRECTION ( 'NONE',  ( -0.0000000000000000000, -0.0000000000000000000, 1.000000000000000000 ) ) ;
#228 = PRODUCT_CONTEXT ( 'NONE', #119, 'mechanical' ) ;
#229 = AXIS2_PLACEMENT_3D ( 'NONE', #262, #206, #232 ) ;
#230 = ADVANCED_FACE ( 'NONE', ( #352, #150 ), #95, .F. ) ;
#231 = AXIS2_PLACEMENT_3D ( 'NONE', #210, #304, #43 ) ;
#232 = DIRECTION ( 'NONE',  ( 1.000000000000000000, 0.0000000000000000000, 0.0000000000000000000 ) ) ;
#233 = CARTESIAN_POINT ( 'NONE',  ( 9.250000000000000000, 0.0000000000000000000, -40.99999999999999289 ) ) ;
#234 = LINE ( 'NONE', #349, #322 ) ;
#235 = CARTESIAN_POINT ( 'NONE',  ( -12.24999999999998934, 1.500192328955506551E-15, 39.99999999999998579 ) ) ;
#236 = COLOUR_RGB ( '',0.2509803921568627416, 0.2509803921568627416, 0.2509803921568627416 ) ;
#237 = CARTESIAN_POINT ( 'NONE',  ( -9.249999999999989342, 1.132798289211300712E-15, 40.99999999999999289 ) ) ;
#238 = ORIENTED_EDGE ( 'NONE', *, *, #86, .T. ) ;
#239 = ORIENTED_EDGE ( 'NONE', *, *, #96, .F. ) ;
#240 = DIRECTION ( 'NONE',  ( -1.000000000000000000, 0.0000000000000000000, -0.0000000000000000000 ) ) ;
#241 = ADVANCED_FACE ( 'NONE', ( #297 ), #211, .T. ) ;
#242 = AXIS2_PLACEMENT_3D ( 'NONE', #2, #142, #320 ) ;
#243 = ORIENTED_EDGE ( 'NONE', *, *, #18, .T. ) ;
#244 = CYLINDRICAL_SURFACE ( 'NONE', #345, 9.249999999999994671 ) ;
#245 = ADVANCED_FACE ( 'NONE', ( #16, #65 ), #327, .F. ) ;
#246 = DIRECTION ( 'NONE',  ( 0.0000000000000000000, -0.0000000000000000000, 1.000000000000000000 ) ) ;
#247 = AXIS2_PLACEMENT_3D ( 'NONE', #122, #343, #81 ) ;
#248 = AXIS2_PLACEMENT_3D ( 'NONE', #340, #50, #312 ) ;
#249 = PRODUCT_RELATED_PRODUCT_CATEGORY ( 'part', '', ( #64 ) ) ;
#250 =( NAMED_UNIT ( * ) SI_UNIT ( $, .STERADIAN. ) SOLID_ANGLE_UNIT ( ) );
#251 = VERTEX_POINT ( 'NONE', #235 ) ;
#252 = FACE_OUTER_BOUND ( 'NONE', #331, .T. ) ;
#253 = SURFACE_SIDE_STYLE ('',( #367 ) ) ;
#254 = EDGE_LOOP ( 'NONE', ( #80, #155, #130, #336 ) ) ;
#255 = DIRECTION ( 'NONE',  ( -0.0000000000000000000, -0.0000000000000000000, 1.000000000000000000 ) ) ;
#256 = CARTESIAN_POINT ( 'NONE',  ( 0.0000000000000000000, 0.0000000000000000000, 40.99999999999999289 ) ) ;
#257 = EDGE_CURVE ( 'NONE', #41, #201, #9, .T. ) ;
#258 = LINE ( 'NONE', #204, #359 ) ;
#259 = CIRCLE ( 'NONE', #112, 12.25000000000000000 ) ;
#260 = DIRECTION ( 'NONE',  ( -0.0000000000000000000, -0.0000000000000000000, 1.000000000000000000 ) ) ;
#261 = DIRECTION ( 'NONE',  ( 1.000000000000000000, 0.0000000000000000000, 0.0000000000000000000 ) ) ;
#262 = CARTESIAN_POINT ( 'NONE',  ( 0.0000000000000000000, 0.0000000000000000000, -40.99999999999999289 ) ) ;
#263 = CIRCLE ( 'NONE', #369, 9.249999999999989342 ) ;
#264 = CARTESIAN_POINT ( 'NONE',  ( 0.0000000000000000000, 0.0000000000000000000, -40.99999999999999289 ) ) ;
#265 = AXIS2_PLACEMENT_3D ( 'NONE', #264, #300, #325 ) ;
#266 = VERTEX_POINT ( 'NONE', #127 ) ;
#267 = DIRECTION ( 'NONE',  ( 0.0000000000000000000, 0.0000000000000000000, -1.000000000000000000 ) ) ;
#268 = EDGE_LOOP ( 'NONE', ( #76, #224, #140, #189 ) ) ;
#269 = ADVANCED_FACE ( 'NONE', ( #350, #354 ), #272, .F. ) ;
#270 = CARTESIAN_POINT ( 'NONE',  ( 0.0000000000000000000, 9.249999999999989342, 40.99999999999999289 ) ) ;
#271 = ORIENTED_EDGE ( 'NONE', *, *, #5, .T. ) ;
#272 = PLANE ( 'NONE',  #71 ) ;
#273 = ORIENTED_EDGE ( 'NONE', *, *, #103, .F. ) ;
#274 = DIRECTION ( 'NONE',  ( 1.000000000000000000, 0.0000000000000000000, 0.0000000000000000000 ) ) ;
#275 = EDGE_LOOP ( 'NONE', ( #46, #335, #281, #239 ) ) ;
#276 =( LENGTH_UNIT ( ) NAMED_UNIT ( * ) SI_UNIT ( .MILLI., .METRE. ) );
#277 = ORIENTED_EDGE ( 'NONE', *, *, #143, .F. ) ;
#278 = FILL_AREA_STYLE ('',( #362 ) ) ;
#279 = DIRECTION ( 'NONE',  ( 1.000000000000000000, 0.0000000000000000000, 0.0000000000000000000 ) ) ;
#280 = CARTESIAN_POINT ( 'NONE',  ( 0.0000000000000000000, 0.0000000000000000000, -40.99999999999999289 ) ) ;
#281 = ORIENTED_EDGE ( 'NONE', *, *, #5, .F. ) ;
#282 = DIRECTION ( 'NONE',  ( 1.000000000000000000, 0.0000000000000000000, 0.0000000000000000000 ) ) ;
#283 = DIRECTION ( 'NONE',  ( 1.000000000000000000, 0.0000000000000000000, 0.0000000000000000000 ) ) ;
#284 = AXIS2_PLACEMENT_3D ( 'NONE', #168, #198, #282 ) ;
#285 = APPLICATION_PROTOCOL_DEFINITION ( 'draft international standard', 'automotive_design', 1998, #332 ) ;
#286 = ADVANCED_BREP_SHAPE_REPRESENTATION ( '0093E074-76A8-4FEF-AA89-E35E8D3041E7', ( #372, #98 ), #208 ) ;
#287 = CARTESIAN_POINT ( 'NONE',  ( 0.0000000000000000000, 0.0000000000000000000, 39.99999999999998579 ) ) ;
#288 = CARTESIAN_POINT ( 'NONE',  ( -30.00000000000000711, 3.673940397442059967E-15, 98.43369195224448731 ) ) ;
#289 = ADVANCED_FACE ( 'NONE', ( #69 ), #99, .T. ) ;
#290 = DIRECTION ( 'NONE',  ( 1.000000000000000000, 0.0000000000000000000, 0.0000000000000000000 ) ) ;
#291 = EDGE_CURVE ( 'NONE', #100, #41, #113, .T. ) ;
#292 = EDGE_CURVE ( 'NONE', #100, #299, #7, .T. ) ;
#293 = CARTESIAN_POINT ( 'NONE',  ( 30.00000000000000000, 0.0000000000000000000, 39.99999999999999289 ) ) ;
#294 = PRODUCT_DEFINITION_CONTEXT ( 'detailed design', #332, 'design' ) ;
#295 = CARTESIAN_POINT ( 'NONE',  ( 30.00000000000001066, 0.0000000000000000000, -39.99999999999999289 ) ) ;
#296 = CARTESIAN_POINT ( 'NONE',  ( 9.249999999999989342, 0.0000000000000000000, 40.99999999999999289 ) ) ;
#297 = FACE_OUTER_BOUND ( 'NONE', #275, .T. ) ;
#298 = AXIS2_PLACEMENT_3D ( 'NONE', #40, #60, #274 ) ;
#299 = VERTEX_POINT ( 'NONE', #237 ) ;
#300 = DIRECTION ( 'NONE',  ( -0.0000000000000000000, -0.0000000000000000000, 1.000000000000000000 ) ) ;
#301 = EDGE_LOOP ( 'NONE', ( #273, #309, #10, #219 ) ) ;
#302 = CARTESIAN_POINT ( 'NONE',  ( -30.00000000000001421, 3.673940397442060756E-15, -39.99999999999999289 ) ) ;
#303 = EDGE_CURVE ( 'NONE', #201, #299, #216, .T. ) ;
#304 = DIRECTION ( 'NONE',  ( 0.0000000000000000000, -0.0000000000000000000, 1.000000000000000000 ) ) ;
#305 = ORIENTED_EDGE ( 'NONE', *, *, #104, .F. ) ;
#306 = AXIS2_PLACEMENT_3D ( 'NONE', #82, #178, #290 ) ;
#307 =( NAMED_UNIT ( * ) PLANE_ANGLE_UNIT ( ) SI_UNIT ( $, .RADIAN. ) );
#308 = DIRECTION ( 'NONE',  ( 1.000000000000000000, 0.0000000000000000000, 0.0000000000000000000 ) ) ;
#309 = ORIENTED_EDGE ( 'NONE', *, *, #34, .T. ) ;
#310 = EDGE_LOOP ( 'NONE', ( #238, #338 ) ) ;
#311 = ADVANCED_FACE ( 'NONE', ( #38 ), #61, .T. ) ;
#312 = DIRECTION ( 'NONE',  ( 1.000000000000000000, 0.0000000000000000000, 0.0000000000000000000 ) ) ;
#313 = DIRECTION ( 'NONE',  ( 1.000000000000000000, 0.0000000000000000000, 0.0000000000000000000 ) ) ;
#314 = SURFACE_STYLE_USAGE ( .BOTH. , #253 ) ;
#315 = EDGE_LOOP ( 'NONE', ( #194, #370, #341, #277 ) ) ;
#316 = ADVANCED_FACE ( 'NONE', ( #11 ), #244, .F. ) ;
#317 = CARTESIAN_POINT ( 'NONE',  ( 0.0000000000000000000, 0.0000000000000000000, -39.99999999999999289 ) ) ;
#318 = CIRCLE ( 'NONE', #152, 12.25000000000000000 ) ;
#319 = LINE ( 'NONE', #31, #12 ) ;
#320 = DIRECTION ( 'NONE',  ( 1.000000000000000000, 0.0000000000000000000, 0.0000000000000000000 ) ) ;
#321 = DIRECTION ( 'NONE',  ( -0.0000000000000000000, -0.0000000000000000000, 1.000000000000000000 ) ) ;
#322 = VECTOR ( 'NONE', #260, 1000.000000000000000 ) ;
#323 = PRESENTATION_LAYER_ASSIGNMENT (  '', '', ( #21 ) ) ;
#324 = CARTESIAN_POINT ( 'NONE',  ( 12.25000000000000000, 0.0000000000000000000, -39.99999999999999289 ) ) ;
#325 = DIRECTION ( 'NONE',  ( 1.000000000000000000, 0.0000000000000000000, 0.0000000000000000000 ) ) ;
#326 = DIRECTION ( 'NONE',  ( -0.0000000000000000000, -0.0000000000000000000, 1.000000000000000000 ) ) ;
#327 = PLANE ( 'NONE',  #147 ) ;
#328 = VECTOR ( 'NONE', #326, 1000.000000000000000 ) ;
#329 = CARTESIAN_POINT ( 'NONE',  ( 12.24999999999998934, 0.0000000000000000000, 39.99999999999998579 ) ) ;
#330 = FACE_OUTER_BOUND ( 'NONE', #254, .T. ) ;
#331 = EDGE_LOOP ( 'NONE', ( #167, #358 ) ) ;
#332 = APPLICATION_CONTEXT ( 'automotive_design' ) ;
#333 = CIRCLE ( 'NONE', #222, 9.250000000000000000 ) ;
#334 = PRESENTATION_STYLE_ASSIGNMENT (( #111 ) ) ;
#335 = ORIENTED_EDGE ( 'NONE', *, *, #176, .T. ) ;
#336 = ORIENTED_EDGE ( 'NONE', *, *, #348, .F. ) ;
#337 = CARTESIAN_POINT ( 'NONE',  ( 0.0000000000000000000, 0.0000000000000000000, 0.0000000000000000000 ) ) ;
#338 = ORIENTED_EDGE ( 'NONE', *, *, #24, .T. ) ;
#339 = AXIS2_PLACEMENT_3D ( 'NONE', #93, #213, #101 ) ;
#340 = CARTESIAN_POINT ( 'NONE',  ( 0.0000000000000000000, 0.0000000000000000000, 98.43369195224448731 ) ) ;
#341 = ORIENTED_EDGE ( 'NONE', *, *, #70, .T. ) ;
#342 = ADVANCED_FACE ( 'NONE', ( #330 ), #357, .T. ) ;
#343 = DIRECTION ( 'NONE',  ( -0.0000000000000000000, -0.0000000000000000000, 1.000000000000000000 ) ) ;
#344 = CYLINDRICAL_SURFACE ( 'NONE', #306, 9.249999999999994671 ) ;
#345 = AXIS2_PLACEMENT_3D ( 'NONE', #153, #126, #215 ) ;
#346 = CARTESIAN_POINT ( 'NONE',  ( -12.25000000000000000, 1.500192328955507734E-15, -39.99999999999999289 ) ) ;
#347 = CARTESIAN_POINT ( 'NONE',  ( 12.24999999999998934, 0.0000000000000000000, 98.43369195224448731 ) ) ;
#348 = EDGE_CURVE ( 'NONE', #20, #78, #84, .T. ) ;
#349 = CARTESIAN_POINT ( 'NONE',  ( -12.24999999999998934, 1.500192328955506551E-15, 98.43369195224448731 ) ) ;
#350 = FACE_BOUND ( 'NONE', #15, .T. ) ;
#351 = CARTESIAN_POINT ( 'NONE',  ( 0.0000000000000000000, 0.0000000000000000000, 98.43369195224448731 ) ) ;
#352 = FACE_OUTER_BOUND ( 'NONE', #125, .T. ) ;
#353 = AXIS2_PLACEMENT_3D ( 'NONE', #196, #255, #308 ) ;
#354 = FACE_OUTER_BOUND ( 'NONE', #48, .T. ) ;
#355 = ORIENTED_EDGE ( 'NONE', *, *, #66, .F. ) ;
#356 = CARTESIAN_POINT ( 'NONE',  ( 0.0000000000000000000, 0.0000000000000000000, 98.43369195224448731 ) ) ;
#357 = CYLINDRICAL_SURFACE ( 'NONE', #248, 30.00000000000000711 ) ;
#358 = ORIENTED_EDGE ( 'NONE', *, *, #47, .F. ) ;
#359 = VECTOR ( 'NONE', #207, 1000.000000000000000 ) ;
#360 = CARTESIAN_POINT ( 'NONE',  ( 0.0000000000000000000, 0.0000000000000000000, 40.99999999999999289 ) ) ;
#361 = VECTOR ( 'NONE', #85, 1000.000000000000000 ) ;
#362 = FILL_AREA_STYLE_COLOUR ( '', #166 ) ;
#363 = UNCERTAINTY_MEASURE_WITH_UNIT (LENGTH_MEASURE( 1.000000000000000082E-05 ), #276, 'distance_accuracy_value', 'NONE');
#364 = EDGE_LOOP ( 'NONE', ( #221, #102, #110, #173 ) ) ;
#365 =( NAMED_UNIT ( * ) PLANE_ANGLE_UNIT ( ) SI_UNIT ( $, .RADIAN. ) );
#366 = CARTESIAN_POINT ( 'NONE',  ( 0.0000000000000000000, 30.00000000000001066, -40.00000000000000711 ) ) ;
#367 = SURFACE_STYLE_FILL_AREA ( #75 ) ;
#368 = ORIENTED_EDGE ( 'NONE', *, *, #103, .T. ) ;
#369 = AXIS2_PLACEMENT_3D ( 'NONE', #117, #144, #205 ) ;
#370 = ORIENTED_EDGE ( 'NONE', *, *, #170, .T. ) ;
#371 = FACE_OUTER_BOUND ( 'NONE', #35, .T. ) ;
#372 = MANIFOLD_SOLID_BREP ( 'Revolve1', #192 ) ;
#373 = DIRECTION ( 'NONE',  ( 1.000000000000000000, 0.0000000000000000000, 0.0000000000000000000 ) ) ;
#374 = CARTESIAN_POINT ( 'NONE',  ( 0.0000000000000000000, 0.0000000000000000000, -39.99999999999999289 ) ) ;
ENDSEC;
END-ISO-10303-21;
