ISO-10303-21;
HEADER;
FILE_DESCRIPTION (( 'STEP AP214' ),
    '1' );
FILE_NAME ('A25C5AAC-9F1A-42A7-A12D-E0A23B096388.STEP',
    '2023-08-02T11:08:55',
    ( '' ),
    ( '' ),
    'SwSTEP 2.0',
    'SolidWorks 2022',
    '' );
FILE_SCHEMA (( 'AUTOMOTIVE_DESIGN' ));
ENDSEC;

DATA;
#1 = LINE ( 'NONE', #351, #184 ) ;
#2 = CARTESIAN_POINT ( 'NONE',  ( 0.0000000000000000000, 0.0000000000000000000, 12.69999999999998863 ) ) ;
#3 = CIRCLE ( 'NONE', #226, 13.62860375948437053 ) ;
#4 = DIRECTION ( 'NONE',  ( -0.0000000000000000000, -0.0000000000000000000, 1.000000000000000000 ) ) ;
#5 = ADVANCED_FACE ( 'NONE', ( #176 ), #238, .T. ) ;
#6 =( LENGTH_UNIT ( ) NAMED_UNIT ( * ) SI_UNIT ( .MILLI., .METRE. ) );
#7 = EDGE_LOOP ( 'NONE', ( #181, #243 ) ) ;
#8 = CARTESIAN_POINT ( 'NONE',  ( 0.0000000000000000000, 0.0000000000000000000, 97.34240933636594661 ) ) ;
#9 = UNCERTAINTY_MEASURE_WITH_UNIT (LENGTH_MEASURE( 1.000000000000000082E-05 ), #227, 'distance_accuracy_value', 'NONE');
#10 = APPLICATION_PROTOCOL_DEFINITION ( 'draft international standard', 'automotive_design', 1998, #126 ) ;
#11 = AXIS2_PLACEMENT_3D ( 'NONE', #190, #53, #159 ) ;
#12 = ORIENTED_EDGE ( 'NONE', *, *, #151, .F. ) ;
#13 = CYLINDRICAL_SURFACE ( 'NONE', #304, 6.099999999999997868 ) ;
#14 = ADVANCED_FACE ( 'NONE', ( #321 ), #42, .T. ) ;
#15 = CYLINDRICAL_SURFACE ( 'NONE', #111, 6.099999999999997868 ) ;
#16 = ORIENTED_EDGE ( 'NONE', *, *, #297, .F. ) ;
#17 = CARTESIAN_POINT ( 'NONE',  ( 23.00000000000000000, 0.0000000000000000000, 97.34240933636594661 ) ) ;
#18 = PRODUCT_DEFINITION_FORMATION_WITH_SPECIFIED_SOURCE ( 'ANY', '', #362, .NOT_KNOWN. ) ;
#19 = EDGE_LOOP ( 'NONE', ( #130, #77 ) ) ;
#20 = DIRECTION ( 'NONE',  ( 1.000000000000000000, 0.0000000000000000000, 0.0000000000000000000 ) ) ;
#21 = CARTESIAN_POINT ( 'NONE',  ( 0.0000000000000000000, 0.0000000000000000000, -24.90000000000000568 ) ) ;
#22 = EDGE_CURVE ( 'NONE', #136, #202, #64, .T. ) ;
#23 = VERTEX_POINT ( 'NONE', #290 ) ;
#24 = PLANE ( 'NONE',  #299 ) ;
#25 = AXIS2_PLACEMENT_3D ( 'NONE', #74, #49, #162 ) ;
#26 = VERTEX_POINT ( 'NONE', #121 ) ;
#27 =( GEOMETRIC_REPRESENTATION_CONTEXT ( 3 ) GLOBAL_UNCERTAINTY_ASSIGNED_CONTEXT ( ( #262 ) ) GLOBAL_UNIT_ASSIGNED_CONTEXT ( ( #6, #37, #358 ) ) REPRESENTATION_CONTEXT ( 'NONE', 'WORKASPACE' ) );
#28 = FACE_OUTER_BOUND ( 'NONE', #81, .T. ) ;
#29 = ORIENTED_EDGE ( 'NONE', *, *, #118, .T. ) ;
#30 = FACE_OUTER_BOUND ( 'NONE', #364, .T. ) ;
#31 = CARTESIAN_POINT ( 'NONE',  ( 0.0000000000000000000, 0.0000000000000000000, 11.99999999999999645 ) ) ;
#32 = COLOUR_RGB ( '',1.000000000000000000, 1.000000000000000000, 1.000000000000000000 ) ;
#33 = DIRECTION ( 'NONE',  ( 1.000000000000000000, 0.0000000000000000000, 0.0000000000000000000 ) ) ;
#34 = FACE_OUTER_BOUND ( 'NONE', #128, .T. ) ;
#35 = FACE_OUTER_BOUND ( 'NONE', #96, .T. ) ;
#36 = LINE ( 'NONE', #154, #78 ) ;
#37 =( NAMED_UNIT ( * ) PLANE_ANGLE_UNIT ( ) SI_UNIT ( $, .RADIAN. ) );
#38 = EDGE_CURVE ( 'NONE', #85, #150, #36, .T. ) ;
#39 = CARTESIAN_POINT ( 'NONE',  ( -12.50000000000000000, 1.530808498934191521E-15, 97.34240933636594661 ) ) ;
#40 = ORIENTED_EDGE ( 'NONE', *, *, #225, .F. ) ;
#41 = AXIS2_PLACEMENT_3D ( 'NONE', #345, #319, #342 ) ;
#42 = CYLINDRICAL_SURFACE ( 'NONE', #343, 12.50000000000000000 ) ;
#43 = DIRECTION ( 'NONE',  ( -0.0000000000000000000, -0.0000000000000000000, 1.000000000000000000 ) ) ;
#44 = ORIENTED_EDGE ( 'NONE', *, *, #187, .T. ) ;
#45 = LINE ( 'NONE', #17, #368 ) ;
#46 = CARTESIAN_POINT ( 'NONE',  ( 0.0000000000000000000, 0.0000000000000000000, 11.99999999999999645 ) ) ;
#47 = CIRCLE ( 'NONE', #278, 6.099999999999995204 ) ;
#48 = ADVANCED_FACE ( 'NONE', ( #266 ), #13, .F. ) ;
#49 = DIRECTION ( 'NONE',  ( -0.0000000000000000000, -0.0000000000000000000, 1.000000000000000000 ) ) ;
#50 = ADVANCED_FACE ( 'NONE', ( #300 ), #261, .T. ) ;
#51 = ORIENTED_EDGE ( 'NONE', *, *, #146, .T. ) ;
#52 = CARTESIAN_POINT ( 'NONE',  ( 0.0000000000000000000, 0.0000000000000000000, -12.00000000000001066 ) ) ;
#53 = DIRECTION ( 'NONE',  ( -0.0000000000000000000, -0.0000000000000000000, 1.000000000000000000 ) ) ;
#54 = ADVANCED_FACE ( 'NONE', ( #178 ), #15, .F. ) ;
#55 = AXIS2_PLACEMENT_3D ( 'NONE', #52, #305, #100 ) ;
#56 = ORIENTED_EDGE ( 'NONE', *, *, #367, .F. ) ;
#57 = CARTESIAN_POINT ( 'NONE',  ( 0.0000000000000000000, 0.0000000000000000000, -24.90000000000000568 ) ) ;
#58 = SURFACE_STYLE_USAGE ( .BOTH. , #115 ) ;
#59 = FILL_AREA_STYLE ('',( #197 ) ) ;
#60 = CIRCLE ( 'NONE', #41, 12.50000000000000000 ) ;
#61 = EDGE_CURVE ( 'NONE', #73, #158, #157, .T. ) ;
#62 = EDGE_CURVE ( 'NONE', #107, #267, #3, .T. ) ;
#63 = DIRECTION ( 'NONE',  ( 1.000000000000000000, 0.0000000000000000000, 0.0000000000000000000 ) ) ;
#64 = LINE ( 'NONE', #39, #328 ) ;
#65 = CIRCLE ( 'NONE', #242, 6.099999999999999645 ) ;
#66 = ORIENTED_EDGE ( 'NONE', *, *, #123, .T. ) ;
#67 = SHAPE_DEFINITION_REPRESENTATION ( #175, #314 ) ;
#68 = DIRECTION ( 'NONE',  ( -0.0000000000000000000, -0.0000000000000000000, 1.000000000000000000 ) ) ;
#69 = CARTESIAN_POINT ( 'NONE',  ( 12.50000000000000000, 0.0000000000000000000, -24.90000000000000568 ) ) ;
#70 = DIRECTION ( 'NONE',  ( 1.000000000000000000, 0.0000000000000000000, 0.0000000000000000000 ) ) ;
#71 =( NAMED_UNIT ( * ) PLANE_ANGLE_UNIT ( ) SI_UNIT ( $, .RADIAN. ) );
#72 = VERTEX_POINT ( 'NONE', #103 ) ;
#73 = VERTEX_POINT ( 'NONE', #131 ) ;
#74 = CARTESIAN_POINT ( 'NONE',  ( 0.0000000000000000000, 0.0000000000000000000, 97.34240933636594661 ) ) ;
#75 = DIRECTION ( 'NONE',  ( 1.000000000000000000, 0.0000000000000000000, 0.0000000000000000000 ) ) ;
#76 = EDGE_CURVE ( 'NONE', #26, #124, #212, .T. ) ;
#77 = ORIENTED_EDGE ( 'NONE', *, *, #218, .F. ) ;
#78 = VECTOR ( 'NONE', #149, 1000.000000000000000 ) ;
#79 = FACE_OUTER_BOUND ( 'NONE', #207, .T. ) ;
#80 = AXIS2_PLACEMENT_3D ( 'NONE', #275, #251, #75 ) ;
#81 = EDGE_LOOP ( 'NONE', ( #92, #352, #56, #341 ) ) ;
#82 = DIRECTION ( 'NONE',  ( 0.0000000000000000000, 0.0000000000000000000, -1.000000000000000000 ) ) ;
#83 = ADVANCED_FACE ( 'NONE', ( #248, #217 ), #280, .F. ) ;
#84 = DIRECTION ( 'NONE',  ( -0.0000000000000000000, -0.0000000000000000000, 1.000000000000000000 ) ) ;
#85 = VERTEX_POINT ( 'NONE', #106 ) ;
#86 = DIRECTION ( 'NONE',  ( -0.0000000000000000000, -0.0000000000000000000, 1.000000000000000000 ) ) ;
#87 = AXIS2_PLACEMENT_3D ( 'NONE', #144, #285, #63 ) ;
#88 = DIRECTION ( 'NONE',  ( -0.0000000000000000000, -0.0000000000000000000, 1.000000000000000000 ) ) ;
#89 = DIRECTION ( 'NONE',  ( -0.08715574274765440499, 1.067350013832251138E-17, 0.9961946980917458783 ) ) ;
#90 = CARTESIAN_POINT ( 'NONE',  ( 6.099999999999999645, 0.0000000000000000000, -24.90000000000000568 ) ) ;
#91 = SURFACE_SIDE_STYLE ('',( #324 ) ) ;
#92 = ORIENTED_EDGE ( 'NONE', *, *, #235, .T. ) ;
#93 = DIRECTION ( 'NONE',  ( -0.0000000000000000000, -0.0000000000000000000, 1.000000000000000000 ) ) ;
#94 = DIRECTION ( 'NONE',  ( -0.0000000000000000000, -0.0000000000000000000, 1.000000000000000000 ) ) ;
#95 = MECHANICAL_DESIGN_GEOMETRIC_PRESENTATION_REPRESENTATION (  '', ( #237 ), #284 ) ;
#96 = EDGE_LOOP ( 'NONE', ( #311, #245, #338, #168 ) ) ;
#97 = ORIENTED_EDGE ( 'NONE', *, *, #38, .T. ) ;
#98 = CARTESIAN_POINT ( 'NONE',  ( 0.0000000000000000000, 0.0000000000000000000, 0.0000000000000000000 ) ) ;
#99 = EDGE_LOOP ( 'NONE', ( #44, #371 ) ) ;
#100 = DIRECTION ( 'NONE',  ( 1.000000000000000000, 0.0000000000000000000, 0.0000000000000000000 ) ) ;
#101 = CARTESIAN_POINT ( 'NONE',  ( -12.50000000000000000, 1.530808498934191521E-15, 11.99999999999999645 ) ) ;
#102 = EDGE_CURVE ( 'NONE', #357, #274, #134, .T. ) ;
#103 = CARTESIAN_POINT ( 'NONE',  ( 12.50000000000000000, 0.0000000000000000000, 11.99999999999999645 ) ) ;
#104 = DIRECTION ( 'NONE',  ( 0.0000000000000000000, 0.0000000000000000000, -1.000000000000000000 ) ) ;
#105 = AXIS2_PLACEMENT_3D ( 'NONE', #306, #192, #129 ) ;
#106 = CARTESIAN_POINT ( 'NONE',  ( -6.099999999999999645, 7.470345474798854293E-16, -24.90000000000000568 ) ) ;
#107 = VERTEX_POINT ( 'NONE', #222 ) ;
#108 = DIRECTION ( 'NONE',  ( 1.000000000000000000, 0.0000000000000000000, 0.0000000000000000000 ) ) ;
#109 = ADVANCED_FACE ( 'NONE', ( #339, #360 ), #24, .F. ) ;
#110 = CARTESIAN_POINT ( 'NONE',  ( -23.00000000000000000, 2.816687638038912352E-15, 97.34240933636594661 ) ) ;
#111 = AXIS2_PLACEMENT_3D ( 'NONE', #8, #295, #152 ) ;
#112 = LINE ( 'NONE', #228, #350 ) ;
#113 = EDGE_CURVE ( 'NONE', #124, #26, #143, .T. ) ;
#114 = PRODUCT_DEFINITION_CONTEXT ( 'detailed design', #203, 'design' ) ;
#115 = SURFACE_SIDE_STYLE ('',( #372 ) ) ;
#116 = CARTESIAN_POINT ( 'NONE',  ( 0.0000000000000000000, 0.0000000000000000000, -12.00000000000001066 ) ) ;
#117 = CIRCLE ( 'NONE', #87, 12.50000000000000000 ) ;
#118 = EDGE_CURVE ( 'NONE', #158, #73, #354, .T. ) ;
#119 = PRESENTATION_LAYER_ASSIGNMENT (  '', '', ( #177 ) ) ;
#120 = ORIENTED_EDGE ( 'NONE', *, *, #151, .T. ) ;
#121 = CARTESIAN_POINT ( 'NONE',  ( 23.00000000000000000, 0.0000000000000000000, 11.99999999999999645 ) ) ;
#122 = EDGE_LOOP ( 'NONE', ( #220, #97, #51, #241 ) ) ;
#123 = EDGE_CURVE ( 'NONE', #85, #272, #65, .T. ) ;
#124 = VERTEX_POINT ( 'NONE', #363 ) ;
#125 = ORIENTED_EDGE ( 'NONE', *, *, #333, .T. ) ;
#126 = APPLICATION_CONTEXT ( 'automotive_design' ) ;
#127 = EDGE_CURVE ( 'NONE', #73, #26, #45, .T. ) ;
#128 = EDGE_LOOP ( 'NONE', ( #133, #16 ) ) ;
#129 = DIRECTION ( 'NONE',  ( 1.000000000000000000, 0.0000000000000000000, 0.0000000000000000000 ) ) ;
#130 = ORIENTED_EDGE ( 'NONE', *, *, #235, .F. ) ;
#131 = CARTESIAN_POINT ( 'NONE',  ( 23.00000000000000355, 0.0000000000000000000, -12.00000000000001066 ) ) ;
#132 = DIRECTION ( 'NONE',  ( -0.0000000000000000000, -0.0000000000000000000, 1.000000000000000000 ) ) ;
#133 = ORIENTED_EDGE ( 'NONE', *, *, #102, .F. ) ;
#134 = CIRCLE ( 'NONE', #330, 12.50000000000000000 ) ;
#135 = CARTESIAN_POINT ( 'NONE',  ( 0.0000000000000000000, 0.0000000000000000000, 12.69999999999998863 ) ) ;
#136 = VERTEX_POINT ( 'NONE', #101 ) ;
#137 = EDGE_CURVE ( 'NONE', #357, #267, #335, .T. ) ;
#138 = CYLINDRICAL_SURFACE ( 'NONE', #25, 12.50000000000000000 ) ;
#139 = ORIENTED_EDGE ( 'NONE', *, *, #356, .T. ) ;
#140 = PRESENTATION_STYLE_ASSIGNMENT (( #58 ) ) ;
#141 = ADVANCED_FACE ( 'NONE', ( #79 ), #231, .T. ) ;
#142 = CARTESIAN_POINT ( 'NONE',  ( 0.0000000000000000000, 23.00000000000000355, -12.00000000000000711 ) ) ;
#143 = CIRCLE ( 'NONE', #105, 23.00000000000000000 ) ;
#144 = CARTESIAN_POINT ( 'NONE',  ( 0.0000000000000000000, 0.0000000000000000000, 11.99999999999999645 ) ) ;
#145 = FACE_BOUND ( 'NONE', #165, .T. ) ;
#146 = EDGE_CURVE ( 'NONE', #150, #369, #166, .T. ) ;
#147 = AXIS2_PLACEMENT_3D ( 'NONE', #31, #86, #33 ) ;
#148 = AXIS2_PLACEMENT_3D ( 'NONE', #208, #4, #259 ) ;
#149 = DIRECTION ( 'NONE',  ( -0.0000000000000000000, -0.0000000000000000000, 1.000000000000000000 ) ) ;
#150 = VERTEX_POINT ( 'NONE', #307 ) ;
#151 = EDGE_CURVE ( 'NONE', #202, #23, #183, .T. ) ;
#152 = DIRECTION ( 'NONE',  ( 1.000000000000000000, 0.0000000000000000000, 0.0000000000000000000 ) ) ;
#153 = PRESENTATION_STYLE_ASSIGNMENT (( #233 ) ) ;
#154 = CARTESIAN_POINT ( 'NONE',  ( -6.099999999999997868, 7.470345474798852320E-16, 97.34240933636594661 ) ) ;
#155 = DIRECTION ( 'NONE',  ( 1.000000000000000000, 0.0000000000000000000, 0.0000000000000000000 ) ) ;
#156 = DIRECTION ( 'NONE',  ( -0.0000000000000000000, -0.0000000000000000000, 1.000000000000000000 ) ) ;
#157 = CIRCLE ( 'NONE', #172, 23.00000000000000355 ) ;
#158 = VERTEX_POINT ( 'NONE', #191 ) ;
#159 = DIRECTION ( 'NONE',  ( 1.000000000000000000, 0.0000000000000000000, 0.0000000000000000000 ) ) ;
#160 =( GEOMETRIC_REPRESENTATION_CONTEXT ( 3 ) GLOBAL_UNCERTAINTY_ASSIGNED_CONTEXT ( ( #293 ) ) GLOBAL_UNIT_ASSIGNED_CONTEXT ( ( #291, #71, #239 ) ) REPRESENTATION_CONTEXT ( 'NONE', 'WORKASPACE' ) );
#161 = ORIENTED_EDGE ( 'NONE', *, *, #146, .F. ) ;
#162 = DIRECTION ( 'NONE',  ( 1.000000000000000000, 0.0000000000000000000, 0.0000000000000000000 ) ) ;
#163 = ORIENTED_EDGE ( 'NONE', *, *, #187, .F. ) ;
#164 = DIRECTION ( 'NONE',  ( 1.000000000000000000, 0.0000000000000000000, 0.0000000000000000000 ) ) ;
#165 = EDGE_LOOP ( 'NONE', ( #359, #66 ) ) ;
#166 = CIRCLE ( 'NONE', #316, 6.099999999999995204 ) ;
#167 = DIRECTION ( 'NONE',  ( -0.0000000000000000000, -0.0000000000000000000, 1.000000000000000000 ) ) ;
#168 = ORIENTED_EDGE ( 'NONE', *, *, #62, .F. ) ;
#169 = LINE ( 'NONE', #110, #219 ) ;
#170 = ADVANCED_FACE ( 'NONE', ( #28 ), #138, .T. ) ;
#171 = LINE ( 'NONE', #315, #200 ) ;
#172 = AXIS2_PLACEMENT_3D ( 'NONE', #189, #167, #365 ) ;
#173 = PLANE ( 'NONE',  #361 ) ;
#174 = PLANE ( 'NONE',  #249 ) ;
#175 = PRODUCT_DEFINITION_SHAPE ( 'NONE', 'NONE',  #288 ) ;
#176 = FACE_OUTER_BOUND ( 'NONE', #327, .T. ) ;
#177 = STYLED_ITEM ( 'NONE', ( #153 ), #314 ) ;
#178 = FACE_OUTER_BOUND ( 'NONE', #122, .T. ) ;
#179 = EDGE_CURVE ( 'NONE', #272, #85, #260, .T. ) ;
#180 = DIRECTION ( 'NONE',  ( 0.0000000000000000000, 0.0000000000000000000, 1.000000000000000000 ) ) ;
#181 = ORIENTED_EDGE ( 'NONE', *, *, #76, .T. ) ;
#182 = CARTESIAN_POINT ( 'NONE',  ( 0.0000000000000000000, 0.0000000000000000000, 97.34240933636594661 ) ) ;
#183 = CIRCLE ( 'NONE', #11, 12.50000000000000000 ) ;
#184 = VECTOR ( 'NONE', #93, 1000.000000000000000 ) ;
#185 = AXIS2_PLACEMENT_3D ( 'NONE', #98, #180, #294 ) ;
#186 = DIRECTION ( 'NONE',  ( 1.000000000000000000, 0.0000000000000000000, 0.0000000000000000000 ) ) ;
#187 = EDGE_CURVE ( 'NONE', #267, #107, #271, .T. ) ;
#188 = ORIENTED_EDGE ( 'NONE', *, *, #218, .T. ) ;
#189 = CARTESIAN_POINT ( 'NONE',  ( 0.0000000000000000000, 0.0000000000000000000, -12.00000000000001066 ) ) ;
#190 = CARTESIAN_POINT ( 'NONE',  ( 0.0000000000000000000, 0.0000000000000000000, 12.69999999999998863 ) ) ;
#191 = CARTESIAN_POINT ( 'NONE',  ( -23.00000000000000355, 2.816687638038913141E-15, -12.00000000000001066 ) ) ;
#192 = DIRECTION ( 'NONE',  ( -0.0000000000000000000, -0.0000000000000000000, 1.000000000000000000 ) ) ;
#193 = DIRECTION ( 'NONE',  ( 1.000000000000000000, 0.0000000000000000000, 0.0000000000000000000 ) ) ;
#194 = ORIENTED_EDGE ( 'NONE', *, *, #205, .T. ) ;
#195 = PRESENTATION_LAYER_ASSIGNMENT (  '', '', ( #237 ) ) ;
#196 = DIRECTION ( 'NONE',  ( 1.000000000000000000, 0.0000000000000000000, 0.0000000000000000000 ) ) ;
#197 = FILL_AREA_STYLE_COLOUR ( '', #32 ) ;
#198 = CARTESIAN_POINT ( 'NONE',  ( -12.50000000000000000, 1.530808498934191521E-15, 12.69999999999998863 ) ) ;
#199 = CLOSED_SHELL ( 'NONE', ( #141, #5, #170, #54, #308, #48, #109, #14, #83, #50, #252, #320 ) ) ;
#200 = VECTOR ( 'NONE', #349, 1000.000000000000000 ) ;
#201 = PRODUCT_CONTEXT ( 'NONE', #126, 'mechanical' ) ;
#202 = VERTEX_POINT ( 'NONE', #198 ) ;
#203 = APPLICATION_CONTEXT ( 'automotive_design' ) ;
#204 = DIRECTION ( 'NONE',  ( -0.0000000000000000000, -0.0000000000000000000, 1.000000000000000000 ) ) ;
#205 = EDGE_CURVE ( 'NONE', #369, #150, #47, .T. ) ;
#206 = AXIS2_PLACEMENT_3D ( 'NONE', #46, #246, #302 ) ;
#207 = EDGE_LOOP ( 'NONE', ( #331, #125, #163, #247 ) ) ;
#208 = CARTESIAN_POINT ( 'NONE',  ( 0.0000000000000000000, 0.0000000000000000000, 12.69999999999998863 ) ) ;
#209 = EDGE_LOOP ( 'NONE', ( #292, #161 ) ) ;
#210 = EDGE_CURVE ( 'NONE', #272, #369, #171, .T. ) ;
#211 = CARTESIAN_POINT ( 'NONE',  ( 0.0000000000000000000, 0.0000000000000000000, 97.34240933636594661 ) ) ;
#212 = CIRCLE ( 'NONE', #206, 23.00000000000000000 ) ;
#213 = CONICAL_SURFACE ( 'NONE', #257, 12.50000000000000000, 0.08726646259971269914 ) ;
#214 = DIRECTION ( 'NONE',  ( -0.0000000000000000000, -0.0000000000000000000, 1.000000000000000000 ) ) ;
#215 = CARTESIAN_POINT ( 'NONE',  ( 0.0000000000000000000, 0.0000000000000000000, -24.90000000000000568 ) ) ;
#216 = ORIENTED_EDGE ( 'NONE', *, *, #179, .F. ) ;
#217 = FACE_OUTER_BOUND ( 'NONE', #7, .T. ) ;
#218 = EDGE_CURVE ( 'NONE', #136, #72, #117, .T. ) ;
#219 = VECTOR ( 'NONE', #282, 1000.000000000000000 ) ;
#220 = ORIENTED_EDGE ( 'NONE', *, *, #123, .F. ) ;
#221 = PRODUCT_RELATED_PRODUCT_CATEGORY ( 'part', '', ( #362 ) ) ;
#222 = CARTESIAN_POINT ( 'NONE',  ( -13.62860375948437053, 1.669022597090011807E-15, -12.00000000000001066 ) ) ;
#223 = CARTESIAN_POINT ( 'NONE',  ( 0.0000000000000000000, 6.099999999999995204, 12.69999999999998863 ) ) ;
#224 = ORIENTED_EDGE ( 'NONE', *, *, #38, .F. ) ;
#225 = EDGE_CURVE ( 'NONE', #158, #124, #169, .T. ) ;
#226 = AXIS2_PLACEMENT_3D ( 'NONE', #273, #303, #20 ) ;
#227 =( LENGTH_UNIT ( ) NAMED_UNIT ( * ) SI_UNIT ( .MILLI., .METRE. ) );
#228 = CARTESIAN_POINT ( 'NONE',  ( -12.50000000000000000, 1.530808498934191521E-15, -24.90000000000000568 ) ) ;
#229 = CARTESIAN_POINT ( 'NONE',  ( 13.62860375948437053, 0.0000000000000000000, -12.00000000000001066 ) ) ;
#230 = DIRECTION ( 'NONE',  ( 0.0000000000000000000, -0.0000000000000000000, 1.000000000000000000 ) ) ;
#231 = CONICAL_SURFACE ( 'NONE', #80, 12.50000000000000000, 0.08726646259971269914 ) ;
#232 = FILL_AREA_STYLE ('',( #326 ) ) ;
#233 = SURFACE_STYLE_USAGE ( .BOTH. , #91 ) ;
#234 = ORIENTED_EDGE ( 'NONE', *, *, #76, .F. ) ;
#235 = EDGE_CURVE ( 'NONE', #72, #136, #289, .T. ) ;
#236 = ORIENTED_EDGE ( 'NONE', *, *, #22, .F. ) ;
#237 = STYLED_ITEM ( 'NONE', ( #140 ), #258 ) ;
#238 = CYLINDRICAL_SURFACE ( 'NONE', #348, 23.00000000000000000 ) ;
#239 =( NAMED_UNIT ( * ) SI_UNIT ( $, .STERADIAN. ) SOLID_ANGLE_UNIT ( ) );
#240 = DIRECTION ( 'NONE',  ( 1.000000000000000000, 0.0000000000000000000, 0.0000000000000000000 ) ) ;
#241 = ORIENTED_EDGE ( 'NONE', *, *, #210, .F. ) ;
#242 = AXIS2_PLACEMENT_3D ( 'NONE', #336, #214, #244 ) ;
#243 = ORIENTED_EDGE ( 'NONE', *, *, #113, .T. ) ;
#244 = DIRECTION ( 'NONE',  ( 1.000000000000000000, 0.0000000000000000000, 0.0000000000000000000 ) ) ;
#245 = ORIENTED_EDGE ( 'NONE', *, *, #297, .T. ) ;
#246 = DIRECTION ( 'NONE',  ( -0.0000000000000000000, -0.0000000000000000000, 1.000000000000000000 ) ) ;
#247 = ORIENTED_EDGE ( 'NONE', *, *, #137, .F. ) ;
#248 = FACE_BOUND ( 'NONE', #19, .T. ) ;
#249 = AXIS2_PLACEMENT_3D ( 'NONE', #313, #256, #287 ) ;
#250 = ORIENTED_EDGE ( 'NONE', *, *, #367, .T. ) ;
#251 = DIRECTION ( 'NONE',  ( -0.0000000000000000000, -0.0000000000000000000, 1.000000000000000000 ) ) ;
#252 = ADVANCED_FACE ( 'NONE', ( #30, #347 ), #173, .F. ) ;
#253 = ORIENTED_EDGE ( 'NONE', *, *, #61, .T. ) ;
#254 = DIRECTION ( 'NONE',  ( 1.000000000000000000, 0.0000000000000000000, 0.0000000000000000000 ) ) ;
#255 = EDGE_LOOP ( 'NONE', ( #250, #120 ) ) ;
#256 = DIRECTION ( 'NONE',  ( 0.0000000000000000000, -0.0000000000000000000, 1.000000000000000000 ) ) ;
#257 = AXIS2_PLACEMENT_3D ( 'NONE', #57, #283, #374 ) ;
#258 = MANIFOLD_SOLID_BREP ( 'Revolve1', #199 ) ;
#259 = DIRECTION ( 'NONE',  ( 1.000000000000000000, 0.0000000000000000000, 0.0000000000000000000 ) ) ;
#260 = CIRCLE ( 'NONE', #309, 6.099999999999999645 ) ;
#261 = CYLINDRICAL_SURFACE ( 'NONE', #270, 23.00000000000000000 ) ;
#262 = UNCERTAINTY_MEASURE_WITH_UNIT (LENGTH_MEASURE( 1.000000000000000082E-05 ), #6, 'distance_accuracy_value', 'NONE');
#263 = DIRECTION ( 'NONE',  ( -0.0000000000000000000, -0.0000000000000000000, 1.000000000000000000 ) ) ;
#264 = ORIENTED_EDGE ( 'NONE', *, *, #210, .T. ) ;
#265 = AXIS2_PLACEMENT_3D ( 'NONE', #116, #88, #346 ) ;
#266 = FACE_OUTER_BOUND ( 'NONE', #334, .T. ) ;
#267 = VERTEX_POINT ( 'NONE', #229 ) ;
#268 = ORIENTED_EDGE ( 'NONE', *, *, #118, .F. ) ;
#269 = CARTESIAN_POINT ( 'NONE',  ( 12.50000000000000000, 0.0000000000000000000, -24.90000000000000568 ) ) ;
#270 = AXIS2_PLACEMENT_3D ( 'NONE', #322, #43, #155 ) ;
#271 = CIRCLE ( 'NONE', #265, 13.62860375948437053 ) ;
#272 = VERTEX_POINT ( 'NONE', #90 ) ;
#273 = CARTESIAN_POINT ( 'NONE',  ( 0.0000000000000000000, 0.0000000000000000000, -12.00000000000001066 ) ) ;
#274 = VERTEX_POINT ( 'NONE', #312 ) ;
#275 = CARTESIAN_POINT ( 'NONE',  ( 0.0000000000000000000, 0.0000000000000000000, -24.90000000000000568 ) ) ;
#276 = EDGE_LOOP ( 'NONE', ( #236, #188, #139, #12 ) ) ;
#277 = DIRECTION ( 'NONE',  ( -0.0000000000000000000, -0.0000000000000000000, 1.000000000000000000 ) ) ;
#278 = AXIS2_PLACEMENT_3D ( 'NONE', #2, #317, #108 ) ;
#279 = ORIENTED_EDGE ( 'NONE', *, *, #127, .F. ) ;
#280 = PLANE ( 'NONE',  #337 ) ;
#281 = ORIENTED_EDGE ( 'NONE', *, *, #225, .T. ) ;
#282 = DIRECTION ( 'NONE',  ( -0.0000000000000000000, -0.0000000000000000000, 1.000000000000000000 ) ) ;
#283 = DIRECTION ( 'NONE',  ( -0.0000000000000000000, -0.0000000000000000000, 1.000000000000000000 ) ) ;
#284 =( GEOMETRIC_REPRESENTATION_CONTEXT ( 3 ) GLOBAL_UNCERTAINTY_ASSIGNED_CONTEXT ( ( #9 ) ) GLOBAL_UNIT_ASSIGNED_CONTEXT ( ( #227, #373, #286 ) ) REPRESENTATION_CONTEXT ( 'NONE', 'WORKASPACE' ) );
#285 = DIRECTION ( 'NONE',  ( -0.0000000000000000000, -0.0000000000000000000, 1.000000000000000000 ) ) ;
#286 =( NAMED_UNIT ( * ) SI_UNIT ( $, .STERADIAN. ) SOLID_ANGLE_UNIT ( ) );
#287 = DIRECTION ( 'NONE',  ( 1.000000000000000000, 0.0000000000000000000, 0.0000000000000000000 ) ) ;
#288 = PRODUCT_DEFINITION ( 'UNKNOWN', '', #18, #114 ) ;
#289 = CIRCLE ( 'NONE', #147, 12.50000000000000000 ) ;
#290 = CARTESIAN_POINT ( 'NONE',  ( 12.50000000000000000, 0.0000000000000000000, 12.69999999999998863 ) ) ;
#291 =( LENGTH_UNIT ( ) NAMED_UNIT ( * ) SI_UNIT ( .MILLI., .METRE. ) );
#292 = ORIENTED_EDGE ( 'NONE', *, *, #205, .F. ) ;
#293 = UNCERTAINTY_MEASURE_WITH_UNIT (LENGTH_MEASURE( 1.000000000000000082E-05 ), #291, 'distance_accuracy_value', 'NONE');
#294 = DIRECTION ( 'NONE',  ( 1.000000000000000000, 0.0000000000000000000, 0.0000000000000000000 ) ) ;
#295 = DIRECTION ( 'NONE',  ( -0.0000000000000000000, -0.0000000000000000000, 1.000000000000000000 ) ) ;
#296 = CARTESIAN_POINT ( 'NONE',  ( 6.099999999999995204, 0.0000000000000000000, 12.69999999999998863 ) ) ;
#297 = EDGE_CURVE ( 'NONE', #274, #357, #60, .T. ) ;
#298 = ORIENTED_EDGE ( 'NONE', *, *, #127, .T. ) ;
#299 = AXIS2_PLACEMENT_3D ( 'NONE', #223, #82, #340 ) ;
#300 = FACE_OUTER_BOUND ( 'NONE', #301, .T. ) ;
#301 = EDGE_LOOP ( 'NONE', ( #40, #29, #298, #325 ) ) ;
#302 = DIRECTION ( 'NONE',  ( 1.000000000000000000, 0.0000000000000000000, 0.0000000000000000000 ) ) ;
#303 = DIRECTION ( 'NONE',  ( -0.0000000000000000000, -0.0000000000000000000, 1.000000000000000000 ) ) ;
#304 = AXIS2_PLACEMENT_3D ( 'NONE', #329, #68, #186 ) ;
#305 = DIRECTION ( 'NONE',  ( -0.0000000000000000000, -0.0000000000000000000, 1.000000000000000000 ) ) ;
#306 = CARTESIAN_POINT ( 'NONE',  ( 0.0000000000000000000, 0.0000000000000000000, 11.99999999999999645 ) ) ;
#307 = CARTESIAN_POINT ( 'NONE',  ( -6.099999999999995204, 7.470345474798851334E-16, 12.69999999999998863 ) ) ;
#308 = ADVANCED_FACE ( 'NONE', ( #34, #145 ), #174, .F. ) ;
#309 = AXIS2_PLACEMENT_3D ( 'NONE', #21, #132, #254 ) ;
#310 = CIRCLE ( 'NONE', #148, 12.50000000000000000 ) ;
#311 = ORIENTED_EDGE ( 'NONE', *, *, #333, .F. ) ;
#312 = CARTESIAN_POINT ( 'NONE',  ( -12.50000000000000000, 1.599915548012101664E-15, -24.90000000000000568 ) ) ;
#313 = CARTESIAN_POINT ( 'NONE',  ( 0.0000000000000000000, 12.50000000000000000, -24.90000000000000568 ) ) ;
#314 = ADVANCED_BREP_SHAPE_REPRESENTATION ( 'A25C5AAC-9F1A-42A7-A12D-E0A23B096388', ( #258, #185 ), #160 ) ;
#315 = CARTESIAN_POINT ( 'NONE',  ( 6.099999999999997868, 0.0000000000000000000, 97.34240933636594661 ) ) ;
#316 = AXIS2_PLACEMENT_3D ( 'NONE', #135, #84, #193 ) ;
#317 = DIRECTION ( 'NONE',  ( -0.0000000000000000000, -0.0000000000000000000, 1.000000000000000000 ) ) ;
#318 = MECHANICAL_DESIGN_GEOMETRIC_PRESENTATION_REPRESENTATION (  '', ( #177 ), #27 ) ;
#319 = DIRECTION ( 'NONE',  ( -0.0000000000000000000, -0.0000000000000000000, 1.000000000000000000 ) ) ;
#320 = ADVANCED_FACE ( 'NONE', ( #35 ), #213, .T. ) ;
#321 = FACE_OUTER_BOUND ( 'NONE', #276, .T. ) ;
#322 = CARTESIAN_POINT ( 'NONE',  ( 0.0000000000000000000, 0.0000000000000000000, 97.34240933636594661 ) ) ;
#323 = COLOUR_RGB ( '',1.000000000000000000, 1.000000000000000000, 1.000000000000000000 ) ;
#324 = SURFACE_STYLE_FILL_AREA ( #232 ) ;
#325 = ORIENTED_EDGE ( 'NONE', *, *, #113, .F. ) ;
#326 = FILL_AREA_STYLE_COLOUR ( '', #323 ) ;
#327 = EDGE_LOOP ( 'NONE', ( #253, #281, #234, #279 ) ) ;
#328 = VECTOR ( 'NONE', #263, 1000.000000000000000 ) ;
#329 = CARTESIAN_POINT ( 'NONE',  ( 0.0000000000000000000, 0.0000000000000000000, 97.34240933636594661 ) ) ;
#330 = AXIS2_PLACEMENT_3D ( 'NONE', #215, #277, #164 ) ;
#331 = ORIENTED_EDGE ( 'NONE', *, *, #102, .T. ) ;
#332 = DIRECTION ( 'NONE',  ( 0.08715574274765440499, 0.0000000000000000000, 0.9961946980917458783 ) ) ;
#333 = EDGE_CURVE ( 'NONE', #274, #107, #112, .T. ) ;
#334 = EDGE_LOOP ( 'NONE', ( #224, #216, #264, #194 ) ) ;
#335 = LINE ( 'NONE', #269, #344 ) ;
#336 = CARTESIAN_POINT ( 'NONE',  ( 0.0000000000000000000, 0.0000000000000000000, -24.90000000000000568 ) ) ;
#337 = AXIS2_PLACEMENT_3D ( 'NONE', #366, #104, #370 ) ;
#338 = ORIENTED_EDGE ( 'NONE', *, *, #137, .T. ) ;
#339 = FACE_BOUND ( 'NONE', #209, .T. ) ;
#340 = DIRECTION ( 'NONE',  ( -1.000000000000000000, 0.0000000000000000000, -0.0000000000000000000 ) ) ;
#341 = ORIENTED_EDGE ( 'NONE', *, *, #356, .F. ) ;
#342 = DIRECTION ( 'NONE',  ( 1.000000000000000000, 0.0000000000000000000, 0.0000000000000000000 ) ) ;
#343 = AXIS2_PLACEMENT_3D ( 'NONE', #182, #204, #240 ) ;
#344 = VECTOR ( 'NONE', #332, 1000.000000000000000 ) ;
#345 = CARTESIAN_POINT ( 'NONE',  ( 0.0000000000000000000, 0.0000000000000000000, -24.90000000000000568 ) ) ;
#346 = DIRECTION ( 'NONE',  ( 1.000000000000000000, 0.0000000000000000000, 0.0000000000000000000 ) ) ;
#347 = FACE_BOUND ( 'NONE', #99, .T. ) ;
#348 = AXIS2_PLACEMENT_3D ( 'NONE', #211, #94, #70 ) ;
#349 = DIRECTION ( 'NONE',  ( -0.0000000000000000000, -0.0000000000000000000, 1.000000000000000000 ) ) ;
#350 = VECTOR ( 'NONE', #89, 1000.000000000000000 ) ;
#351 = CARTESIAN_POINT ( 'NONE',  ( 12.50000000000000000, 0.0000000000000000000, 97.34240933636594661 ) ) ;
#352 = ORIENTED_EDGE ( 'NONE', *, *, #22, .T. ) ;
#353 = APPLICATION_PROTOCOL_DEFINITION ( 'draft international standard', 'automotive_design', 1998, #203 ) ;
#354 = CIRCLE ( 'NONE', #55, 23.00000000000000355 ) ;
#355 = ORIENTED_EDGE ( 'NONE', *, *, #61, .F. ) ;
#356 = EDGE_CURVE ( 'NONE', #72, #23, #1, .T. ) ;
#357 = VERTEX_POINT ( 'NONE', #69 ) ;
#358 =( NAMED_UNIT ( * ) SI_UNIT ( $, .STERADIAN. ) SOLID_ANGLE_UNIT ( ) );
#359 = ORIENTED_EDGE ( 'NONE', *, *, #179, .T. ) ;
#360 = FACE_OUTER_BOUND ( 'NONE', #255, .T. ) ;
#361 = AXIS2_PLACEMENT_3D ( 'NONE', #142, #230, #196 ) ;
#362 = PRODUCT ( 'A25C5AAC-9F1A-42A7-A12D-E0A23B096388', 'A25C5AAC-9F1A-42A7-A12D-E0A23B096388', '', ( #201 ) ) ;
#363 = CARTESIAN_POINT ( 'NONE',  ( -23.00000000000000000, 2.816687638038912352E-15, 11.99999999999999645 ) ) ;
#364 = EDGE_LOOP ( 'NONE', ( #355, #268 ) ) ;
#365 = DIRECTION ( 'NONE',  ( 1.000000000000000000, 0.0000000000000000000, 0.0000000000000000000 ) ) ;
#366 = CARTESIAN_POINT ( 'NONE',  ( 0.0000000000000000000, 12.50000000000000000, 11.99999999999999289 ) ) ;
#367 = EDGE_CURVE ( 'NONE', #23, #202, #310, .T. ) ;
#368 = VECTOR ( 'NONE', #156, 1000.000000000000000 ) ;
#369 = VERTEX_POINT ( 'NONE', #296 ) ;
#370 = DIRECTION ( 'NONE',  ( -1.000000000000000000, 0.0000000000000000000, -0.0000000000000000000 ) ) ;
#371 = ORIENTED_EDGE ( 'NONE', *, *, #62, .T. ) ;
#372 = SURFACE_STYLE_FILL_AREA ( #59 ) ;
#373 =( NAMED_UNIT ( * ) PLANE_ANGLE_UNIT ( ) SI_UNIT ( $, .RADIAN. ) );
#374 = DIRECTION ( 'NONE',  ( 1.000000000000000000, 0.0000000000000000000, 0.0000000000000000000 ) ) ;
ENDSEC;
END-ISO-10303-21;
