ISO-10303-21;
HEADER;
FILE_DESCRIPTION (( 'STEP AP214' ),
    '1' );
FILE_NAME ('6AD6E0A4-0B31-42C1-987F-D0BC757DF98F.STEP',
    '2023-08-02T11:07:58',
    ( '' ),
    ( '' ),
    'SwSTEP 2.0',
    'SolidWorks 2022',
    '' );
FILE_SCHEMA (( 'AUTOMOTIVE_DESIGN' ));
ENDSEC;

DATA;
#1 = LINE ( 'NONE', #209, #88 ) ;
#2 = CIRCLE ( 'NONE', #270, 28.14999999999999858 ) ;
#3 = FACE_OUTER_BOUND ( 'NONE', #361, .T. ) ;
#4 = PRESENTATION_STYLE_ASSIGNMENT (( #39 ) ) ;
#5 = DIRECTION ( 'NONE',  ( 1.000000000000000000, 0.0000000000000000000, 0.0000000000000000000 ) ) ;
#6 = ORIENTED_EDGE ( 'NONE', *, *, #212, .T. ) ;
#7 = AXIS2_PLACEMENT_3D ( 'NONE', #370, #346, #91 ) ;
#8 = DIRECTION ( 'NONE',  ( -0.0000000000000000000, -0.0000000000000000000, 1.000000000000000000 ) ) ;
#9 = AXIS2_PLACEMENT_3D ( 'NONE', #100, #133, #295 ) ;
#10 = DIRECTION ( 'NONE',  ( 1.000000000000000000, 0.0000000000000000000, 0.0000000000000000000 ) ) ;
#11 = VERTEX_POINT ( 'NONE', #17 ) ;
#12 = FACE_OUTER_BOUND ( 'NONE', #281, .T. ) ;
#13 = CARTESIAN_POINT ( 'NONE',  ( 6.099999999999995204, 0.0000000000000000000, 73.98303990182711232 ) ) ;
#14 = EDGE_LOOP ( 'NONE', ( #109, #317, #235, #229 ) ) ;
#15 = EDGE_CURVE ( 'NONE', #11, #299, #255, .T. ) ;
#16 = LINE ( 'NONE', #18, #181 ) ;
#17 = CARTESIAN_POINT ( 'NONE',  ( -6.099999999999992539, 7.470345474798845418E-16, 21.64999999999999503 ) ) ;
#18 = CARTESIAN_POINT ( 'NONE',  ( -23.00000000000000000, 2.816687638038912352E-15, 18.94999999999999574 ) ) ;
#19 = EDGE_LOOP ( 'NONE', ( #206, #200 ) ) ;
#20 = ORIENTED_EDGE ( 'NONE', *, *, #240, .F. ) ;
#21 = CARTESIAN_POINT ( 'NONE',  ( 6.099999999999992539, 0.0000000000000000000, 21.64999999999999503 ) ) ;
#22 = EDGE_CURVE ( 'NONE', #356, #261, #2, .T. ) ;
#23 = ORIENTED_EDGE ( 'NONE', *, *, #251, .T. ) ;
#24 = CARTESIAN_POINT ( 'NONE',  ( 0.0000000000000000000, 0.0000000000000000000, -7.849999999999996092 ) ) ;
#25 = FACE_OUTER_BOUND ( 'NONE', #264, .T. ) ;
#26 = EDGE_CURVE ( 'NONE', #189, #291, #394, .T. ) ;
#27 = PRESENTATION_LAYER_ASSIGNMENT (  '', '', ( #390 ) ) ;
#28 = AXIS2_PLACEMENT_3D ( 'NONE', #260, #228, #253 ) ;
#29 = DIRECTION ( 'NONE',  ( 0.0000000000000000000, 0.0000000000000000000, -1.000000000000000000 ) ) ;
#30 = DIRECTION ( 'NONE',  ( 1.000000000000000000, 0.0000000000000000000, 0.0000000000000000000 ) ) ;
#31 = DIRECTION ( 'NONE',  ( 1.000000000000000000, 0.0000000000000000000, 0.0000000000000000000 ) ) ;
#32 = AXIS2_PLACEMENT_3D ( 'NONE', #307, #211, #148 ) ;
#33 = DIRECTION ( 'NONE',  ( 1.000000000000000000, 0.0000000000000000000, 0.0000000000000000000 ) ) ;
#34 = FACE_OUTER_BOUND ( 'NONE', #383, .T. ) ;
#35 = ADVANCED_BREP_SHAPE_REPRESENTATION ( '6AD6E0A4-0B31-42C1-987F-D0BC757DF98F', ( #197, #338 ), #59 ) ;
#36 = LINE ( 'NONE', #336, #221 ) ;
#37 = AXIS2_PLACEMENT_3D ( 'NONE', #301, #144, #87 ) ;
#38 = CARTESIAN_POINT ( 'NONE',  ( 0.0000000000000000000, 0.0000000000000000000, 21.64999999999999503 ) ) ;
#39 = SURFACE_STYLE_USAGE ( .BOTH. , #368 ) ;
#40 = EDGE_CURVE ( 'NONE', #247, #76, #331, .T. ) ;
#41 = VERTEX_POINT ( 'NONE', #239 ) ;
#42 = DIRECTION ( 'NONE',  ( -0.0000000000000000000, -0.0000000000000000000, 1.000000000000000000 ) ) ;
#43 =( GEOMETRIC_REPRESENTATION_CONTEXT ( 3 ) GLOBAL_UNCERTAINTY_ASSIGNED_CONTEXT ( ( #136 ) ) GLOBAL_UNIT_ASSIGNED_CONTEXT ( ( #129, #161, #313 ) ) REPRESENTATION_CONTEXT ( 'NONE', 'WORKASPACE' ) );
#44 = ORIENTED_EDGE ( 'NONE', *, *, #286, .F. ) ;
#45 = VECTOR ( 'NONE', #162, 1000.000000000000000 ) ;
#46 = CARTESIAN_POINT ( 'NONE',  ( -13.70734355665769755, 1.678665441147394590E-15, -7.850000000000009415 ) ) ;
#47 = ORIENTED_EDGE ( 'NONE', *, *, #240, .T. ) ;
#48 = PRODUCT_DEFINITION_SHAPE ( 'NONE', 'NONE',  #123 ) ;
#49 = CARTESIAN_POINT ( 'NONE',  ( -28.14999999999999858, 3.447380739599799311E-15, 21.64999999999999503 ) ) ;
#50 = PRODUCT_DEFINITION_CONTEXT ( 'detailed design', #94, 'design' ) ;
#51 = ORIENTED_EDGE ( 'NONE', *, *, #52, .T. ) ;
#52 = EDGE_CURVE ( 'NONE', #54, #386, #164, .T. ) ;
#53 = LINE ( 'NONE', #256, #202 ) ;
#54 = VERTEX_POINT ( 'NONE', #389 ) ;
#55 = CONICAL_SURFACE ( 'NONE', #275, 12.50000000000000000, 0.08726646259971261588 ) ;
#56 = DIRECTION ( 'NONE',  ( 1.000000000000000000, 0.0000000000000000000, 0.0000000000000000000 ) ) ;
#57 = FACE_BOUND ( 'NONE', #358, .T. ) ;
#58 = PRODUCT_RELATED_PRODUCT_CATEGORY ( 'part', '', ( #265 ) ) ;
#59 =( GEOMETRIC_REPRESENTATION_CONTEXT ( 3 ) GLOBAL_UNCERTAINTY_ASSIGNED_CONTEXT ( ( #347 ) ) GLOBAL_UNIT_ASSIGNED_CONTEXT ( ( #203, #166, #135 ) ) REPRESENTATION_CONTEXT ( 'NONE', 'WORKASPACE' ) );
#60 = DIRECTION ( 'NONE',  ( -0.0000000000000000000, -0.0000000000000000000, 1.000000000000000000 ) ) ;
#61 = AXIS2_PLACEMENT_3D ( 'NONE', #241, #364, #150 ) ;
#62 = CIRCLE ( 'NONE', #283, 6.099999999999992539 ) ;
#63 = CARTESIAN_POINT ( 'NONE',  ( 0.0000000000000000000, 0.0000000000000000000, 18.94999999999999574 ) ) ;
#64 = DIRECTION ( 'NONE',  ( 1.000000000000000000, 0.0000000000000000000, 0.0000000000000000000 ) ) ;
#65 = COLOUR_RGB ( '',1.000000000000000000, 1.000000000000000000, 1.000000000000000000 ) ;
#66 = AXIS2_PLACEMENT_3D ( 'NONE', #178, #302, #30 ) ;
#67 = CARTESIAN_POINT ( 'NONE',  ( -28.14999999999999858, 3.447380739599799311E-15, 73.98303990182711232 ) ) ;
#68 = ORIENTED_EDGE ( 'NONE', *, *, #393, .F. ) ;
#69 = CYLINDRICAL_SURFACE ( 'NONE', #385, 28.14999999999999858 ) ;
#70 = ORIENTED_EDGE ( 'NONE', *, *, #286, .T. ) ;
#71 = DIRECTION ( 'NONE',  ( -0.0000000000000000000, -0.0000000000000000000, 1.000000000000000000 ) ) ;
#72 = FACE_OUTER_BOUND ( 'NONE', #143, .T. ) ;
#73 = EDGE_CURVE ( 'NONE', #291, #261, #1, .T. ) ;
#74 = CARTESIAN_POINT ( 'NONE',  ( 0.0000000000000000000, 12.50000000000000000, -21.65000000000000568 ) ) ;
#75 = CARTESIAN_POINT ( 'NONE',  ( -28.14999999999999858, 3.447380739599799311E-15, 20.14999999999999503 ) ) ;
#76 = VERTEX_POINT ( 'NONE', #86 ) ;
#77 = DIRECTION ( 'NONE',  ( 1.000000000000000000, 0.0000000000000000000, 0.0000000000000000000 ) ) ;
#78 = ORIENTED_EDGE ( 'NONE', *, *, #22, .T. ) ;
#79 = DIRECTION ( 'NONE',  ( 1.000000000000000000, 0.0000000000000000000, 0.0000000000000000000 ) ) ;
#80 = EDGE_LOOP ( 'NONE', ( #82, #170 ) ) ;
#81 = ADVANCED_FACE ( 'NONE', ( #115 ), #55, .T. ) ;
#82 = ORIENTED_EDGE ( 'NONE', *, *, #40, .T. ) ;
#83 = CARTESIAN_POINT ( 'NONE',  ( -23.00000000000000000, 3.132034188819355832E-15, 18.94999999999999574 ) ) ;
#84 = AXIS2_PLACEMENT_3D ( 'NONE', #328, #305, #367 ) ;
#85 = DIRECTION ( 'NONE',  ( 0.9739109089901282212, 0.0000000000000000000, 0.2269306972404183109 ) ) ;
#86 = CARTESIAN_POINT ( 'NONE',  ( -6.099999999999997868, 7.470345474798851334E-16, -21.65000000000000213 ) ) ;
#87 = DIRECTION ( 'NONE',  ( 1.000000000000000000, 0.0000000000000000000, 0.0000000000000000000 ) ) ;
#88 = VECTOR ( 'NONE', #60, 1000.000000000000000 ) ;
#89 = CARTESIAN_POINT ( 'NONE',  ( 0.0000000000000000000, 0.0000000000000000000, -21.65000000000000213 ) ) ;
#90 = EDGE_CURVE ( 'NONE', #291, #315, #341, .T. ) ;
#91 = DIRECTION ( 'NONE',  ( 1.000000000000000000, 0.0000000000000000000, 0.0000000000000000000 ) ) ;
#92 = STYLED_ITEM ( 'NONE', ( #360 ), #35 ) ;
#93 = EDGE_LOOP ( 'NONE', ( #186, #125, #196, #352 ) ) ;
#94 = APPLICATION_CONTEXT ( 'automotive_design' ) ;
#95 = COLOUR_RGB ( '',1.000000000000000000, 1.000000000000000000, 1.000000000000000000 ) ;
#96 = EDGE_CURVE ( 'NONE', #76, #247, #362, .T. ) ;
#97 = CARTESIAN_POINT ( 'NONE',  ( 28.14999999999999858, 0.0000000000000000000, 21.64999999999999503 ) ) ;
#98 = SURFACE_STYLE_FILL_AREA ( #124 ) ;
#99 = CIRCLE ( 'NONE', #214, 12.50000000000000000 ) ;
#100 = CARTESIAN_POINT ( 'NONE',  ( 0.0000000000000000000, 0.0000000000000000000, 18.94999999999999574 ) ) ;
#101 = FACE_OUTER_BOUND ( 'NONE', #14, .T. ) ;
#102 = VERTEX_POINT ( 'NONE', #365 ) ;
#103 = DIRECTION ( 'NONE',  ( -0.9739109089901282212, 1.192696877349449845E-16, 0.2269306972404183109 ) ) ;
#104 = ORIENTED_EDGE ( 'NONE', *, *, #279, .F. ) ;
#105 = ORIENTED_EDGE ( 'NONE', *, *, #359, .T. ) ;
#106 = VECTOR ( 'NONE', #375, 1000.000000000000000 ) ;
#107 = APPLICATION_PROTOCOL_DEFINITION ( 'draft international standard', 'automotive_design', 1998, #120 ) ;
#108 = EDGE_LOOP ( 'NONE', ( #237, #349, #44, #104 ) ) ;
#109 = ORIENTED_EDGE ( 'NONE', *, *, #377, .F. ) ;
#110 = EDGE_CURVE ( 'NONE', #163, #102, #99, .T. ) ;
#111 = DIRECTION ( 'NONE',  ( -1.000000000000000000, 0.0000000000000000000, -0.0000000000000000000 ) ) ;
#112 = AXIS2_PLACEMENT_3D ( 'NONE', #273, #274, #376 ) ;
#113 = CONICAL_SURFACE ( 'NONE', #193, 23.00000000000000000, 1.341871330279287511 ) ;
#114 = DIRECTION ( 'NONE',  ( 1.000000000000000000, 0.0000000000000000000, 0.0000000000000000000 ) ) ;
#115 = FACE_OUTER_BOUND ( 'NONE', #384, .T. ) ;
#116 = DIRECTION ( 'NONE',  ( 1.000000000000000000, 0.0000000000000000000, 0.0000000000000000000 ) ) ;
#117 = EDGE_CURVE ( 'NONE', #315, #291, #146, .T. ) ;
#118 = AXIS2_PLACEMENT_3D ( 'NONE', #131, #194, #222 ) ;
#119 = DIRECTION ( 'NONE',  ( 1.000000000000000000, 0.0000000000000000000, 0.0000000000000000000 ) ) ;
#120 = APPLICATION_CONTEXT ( 'automotive_design' ) ;
#121 = FILL_AREA_STYLE_COLOUR ( '', #95 ) ;
#122 = ORIENTED_EDGE ( 'NONE', *, *, #173, .T. ) ;
#123 = PRODUCT_DEFINITION ( 'UNKNOWN', '', #230, #50 ) ;
#124 = FILL_AREA_STYLE ('',( #121 ) ) ;
#125 = ORIENTED_EDGE ( 'NONE', *, *, #117, .T. ) ;
#126 = CIRCLE ( 'NONE', #282, 13.70734355665769755 ) ;
#127 = AXIS2_PLACEMENT_3D ( 'NONE', #258, #319, #380 ) ;
#128 = LINE ( 'NONE', #252, #106 ) ;
#129 =( LENGTH_UNIT ( ) NAMED_UNIT ( * ) SI_UNIT ( .MILLI., .METRE. ) );
#130 = VERTEX_POINT ( 'NONE', #83 ) ;
#131 = CARTESIAN_POINT ( 'NONE',  ( 0.0000000000000000000, 0.0000000000000000000, 73.98303990182711232 ) ) ;
#132 = ORIENTED_EDGE ( 'NONE', *, *, #15, .T. ) ;
#133 = DIRECTION ( 'NONE',  ( -0.0000000000000000000, -0.0000000000000000000, 1.000000000000000000 ) ) ;
#134 = EDGE_LOOP ( 'NONE', ( #208, #381, #132, #257 ) ) ;
#135 =( NAMED_UNIT ( * ) SI_UNIT ( $, .STERADIAN. ) SOLID_ANGLE_UNIT ( ) );
#136 = UNCERTAINTY_MEASURE_WITH_UNIT (LENGTH_MEASURE( 1.000000000000000082E-05 ), #129, 'distance_accuracy_value', 'NONE');
#137 = CARTESIAN_POINT ( 'NONE',  ( 0.0000000000000000000, 0.0000000000000000000, 21.64999999999999503 ) ) ;
#138 = ADVANCED_FACE ( 'NONE', ( #57, #3 ), #335, .F. ) ;
#139 = ORIENTED_EDGE ( 'NONE', *, *, #26, .T. ) ;
#140 = CLOSED_SHELL ( 'NONE', ( #168, #81, #184, #199, #334, #138, #224, #160, #216, #227, #192, #321, #369 ) ) ;
#141 = ORIENTED_EDGE ( 'NONE', *, *, #152, .T. ) ;
#142 = SURFACE_SIDE_STYLE ('',( #300 ) ) ;
#143 = EDGE_LOOP ( 'NONE', ( #267, #51, #325, #371 ) ) ;
#144 = DIRECTION ( 'NONE',  ( -0.0000000000000000000, -0.0000000000000000000, 1.000000000000000000 ) ) ;
#145 = DIRECTION ( 'NONE',  ( -0.0000000000000000000, -0.0000000000000000000, 1.000000000000000000 ) ) ;
#146 = CIRCLE ( 'NONE', #37, 28.14999999999999858 ) ;
#147 = VECTOR ( 'NONE', #233, 1000.000000000000000 ) ;
#148 = DIRECTION ( 'NONE',  ( 1.000000000000000000, 0.0000000000000000000, 0.0000000000000000000 ) ) ;
#149 = CYLINDRICAL_SURFACE ( 'NONE', #112, 23.00000000000000000 ) ;
#150 = DIRECTION ( 'NONE',  ( 1.000000000000000000, 0.0000000000000000000, 0.0000000000000000000 ) ) ;
#151 = CARTESIAN_POINT ( 'NONE',  ( 0.0000000000000000000, 23.00000000000000000, -7.850000000000003197 ) ) ;
#152 = EDGE_CURVE ( 'NONE', #261, #356, #309, .T. ) ;
#153 = PRODUCT_CONTEXT ( 'NONE', #120, 'mechanical' ) ;
#154 = DIRECTION ( 'NONE',  ( -0.0000000000000000000, -0.0000000000000000000, 1.000000000000000000 ) ) ;
#155 = FACE_OUTER_BOUND ( 'NONE', #219, .T. ) ;
#156 = ORIENTED_EDGE ( 'NONE', *, *, #26, .F. ) ;
#157 = AXIS2_PLACEMENT_3D ( 'NONE', #151, #187, #311 ) ;
#158 = CIRCLE ( 'NONE', #250, 12.50000000000000000 ) ;
#159 = PLANE ( 'NONE',  #157 ) ;
#160 = ADVANCED_FACE ( 'NONE', ( #25 ), #113, .T. ) ;
#161 =( NAMED_UNIT ( * ) PLANE_ANGLE_UNIT ( ) SI_UNIT ( $, .RADIAN. ) );
#162 = DIRECTION ( 'NONE',  ( -0.0000000000000000000, -0.0000000000000000000, 1.000000000000000000 ) ) ;
#163 = VERTEX_POINT ( 'NONE', #306 ) ;
#164 = CIRCLE ( 'NONE', #366, 23.00000000000000000 ) ;
#165 = AXIS2_PLACEMENT_3D ( 'NONE', #74, #314, #79 ) ;
#166 =( NAMED_UNIT ( * ) PLANE_ANGLE_UNIT ( ) SI_UNIT ( $, .RADIAN. ) );
#167 = ORIENTED_EDGE ( 'NONE', *, *, #393, .T. ) ;
#168 = ADVANCED_FACE ( 'NONE', ( #392 ), #272, .F. ) ;
#169 = CARTESIAN_POINT ( 'NONE',  ( 23.00000000000000000, 0.0000000000000000000, 73.98303990182711232 ) ) ;
#170 = ORIENTED_EDGE ( 'NONE', *, *, #96, .T. ) ;
#171 = DIRECTION ( 'NONE',  ( 0.08715574274765432172, 0.0000000000000000000, 0.9961946980917458783 ) ) ;
#172 = ORIENTED_EDGE ( 'NONE', *, *, #152, .F. ) ;
#173 = EDGE_CURVE ( 'NONE', #130, #189, #201, .T. ) ;
#174 = FILL_AREA_STYLE_COLOUR ( '', #65 ) ;
#175 = EDGE_LOOP ( 'NONE', ( #6, #234 ) ) ;
#176 = SURFACE_STYLE_USAGE ( .BOTH. , #142 ) ;
#177 = DIRECTION ( 'NONE',  ( -0.0000000000000000000, -0.0000000000000000000, 1.000000000000000000 ) ) ;
#178 = CARTESIAN_POINT ( 'NONE',  ( 0.0000000000000000000, 0.0000000000000000000, 21.64999999999999503 ) ) ;
#179 = CARTESIAN_POINT ( 'NONE',  ( 0.0000000000000000000, 0.0000000000000000000, 21.64999999999999503 ) ) ;
#180 = VECTOR ( 'NONE', #85, 999.9999999999998863 ) ;
#181 = VECTOR ( 'NONE', #103, 999.9999999999998863 ) ;
#182 = CARTESIAN_POINT ( 'NONE',  ( 0.0000000000000000000, 0.0000000000000000000, 73.98303990182711232 ) ) ;
#183 = DIRECTION ( 'NONE',  ( -0.0000000000000000000, -0.0000000000000000000, 1.000000000000000000 ) ) ;
#184 = ADVANCED_FACE ( 'NONE', ( #330 ), #149, .T. ) ;
#185 = AXIS2_PLACEMENT_3D ( 'NONE', #182, #244, #64 ) ;
#186 = ORIENTED_EDGE ( 'NONE', *, *, #251, .F. ) ;
#187 = DIRECTION ( 'NONE',  ( 0.0000000000000000000, -0.0000000000000000000, 1.000000000000000000 ) ) ;
#188 = SHAPE_DEFINITION_REPRESENTATION ( #48, #35 ) ;
#189 = VERTEX_POINT ( 'NONE', #248 ) ;
#190 = MECHANICAL_DESIGN_GEOMETRIC_PRESENTATION_REPRESENTATION (  '', ( #92 ), #303 ) ;
#191 = DIRECTION ( 'NONE',  ( 1.000000000000000000, 0.0000000000000000000, 0.0000000000000000000 ) ) ;
#192 = ADVANCED_FACE ( 'NONE', ( #34 ), #238, .T. ) ;
#193 = AXIS2_PLACEMENT_3D ( 'NONE', #63, #271, #119 ) ;
#194 = DIRECTION ( 'NONE',  ( -0.0000000000000000000, -0.0000000000000000000, 1.000000000000000000 ) ) ;
#195 = LINE ( 'NONE', #226, #318 ) ;
#196 = ORIENTED_EDGE ( 'NONE', *, *, #73, .T. ) ;
#197 = MANIFOLD_SOLID_BREP ( 'Revolve1', #140 ) ;
#198 = FACE_OUTER_BOUND ( 'NONE', #204, .T. ) ;
#199 = ADVANCED_FACE ( 'NONE', ( #155 ), #353, .T. ) ;
#200 = ORIENTED_EDGE ( 'NONE', *, *, #110, .F. ) ;
#201 = CIRCLE ( 'NONE', #61, 23.00000000000000000 ) ;
#202 = VECTOR ( 'NONE', #171, 1000.000000000000000 ) ;
#203 =( LENGTH_UNIT ( ) NAMED_UNIT ( * ) SI_UNIT ( .MILLI., .METRE. ) );
#204 = EDGE_LOOP ( 'NONE', ( #289, #23, #172, #387 ) ) ;
#205 = CYLINDRICAL_SURFACE ( 'NONE', #304, 28.14999999999999858 ) ;
#206 = ORIENTED_EDGE ( 'NONE', *, *, #294, .F. ) ;
#207 = CYLINDRICAL_SURFACE ( 'NONE', #28, 6.099999999999995204 ) ;
#208 = ORIENTED_EDGE ( 'NONE', *, *, #96, .F. ) ;
#209 = CARTESIAN_POINT ( 'NONE',  ( 28.14999999999999858, 0.0000000000000000000, 73.98303990182711232 ) ) ;
#210 = DIRECTION ( 'NONE',  ( 1.000000000000000000, 0.0000000000000000000, 0.0000000000000000000 ) ) ;
#211 = DIRECTION ( 'NONE',  ( -0.0000000000000000000, -0.0000000000000000000, 1.000000000000000000 ) ) ;
#212 = EDGE_CURVE ( 'NONE', #41, #310, #126, .T. ) ;
#213 = DIRECTION ( 'NONE',  ( 1.000000000000000000, 0.0000000000000000000, 0.0000000000000000000 ) ) ;
#214 = AXIS2_PLACEMENT_3D ( 'NONE', #89, #177, #210 ) ;
#215 = CARTESIAN_POINT ( 'NONE',  ( 23.00000000000000000, 0.0000000000000000000, 18.94999999999999574 ) ) ;
#216 = ADVANCED_FACE ( 'NONE', ( #72 ), #308, .T. ) ;
#217 = FACE_BOUND ( 'NONE', #175, .T. ) ;
#218 = FACE_OUTER_BOUND ( 'NONE', #93, .T. ) ;
#219 = EDGE_LOOP ( 'NONE', ( #70, #167, #342, #156 ) ) ;
#220 = MECHANICAL_DESIGN_GEOMETRIC_PRESENTATION_REPRESENTATION (  '', ( #390 ), #43 ) ;
#221 = VECTOR ( 'NONE', #340, 1000.000000000000000 ) ;
#222 = DIRECTION ( 'NONE',  ( 1.000000000000000000, 0.0000000000000000000, 0.0000000000000000000 ) ) ;
#223 = CARTESIAN_POINT ( 'NONE',  ( 0.0000000000000000000, 0.0000000000000000000, -7.849999999999996092 ) ) ;
#224 = ADVANCED_FACE ( 'NONE', ( #218 ), #69, .T. ) ;
#225 = DIRECTION ( 'NONE',  ( 1.000000000000000000, 0.0000000000000000000, 0.0000000000000000000 ) ) ;
#226 = CARTESIAN_POINT ( 'NONE',  ( -6.099999999999995204, 7.470345474798848376E-16, 73.98303990182711232 ) ) ;
#227 = ADVANCED_FACE ( 'NONE', ( #12, #217 ), #159, .F. ) ;
#228 = DIRECTION ( 'NONE',  ( -0.0000000000000000000, -0.0000000000000000000, 1.000000000000000000 ) ) ;
#229 = ORIENTED_EDGE ( 'NONE', *, *, #269, .T. ) ;
#230 = PRODUCT_DEFINITION_FORMATION_WITH_SPECIFIED_SOURCE ( 'ANY', '', #265, .NOT_KNOWN. ) ;
#231 = ORIENTED_EDGE ( 'NONE', *, *, #212, .F. ) ;
#232 = AXIS2_PLACEMENT_3D ( 'NONE', #223, #71, #191 ) ;
#233 = DIRECTION ( 'NONE',  ( -0.0000000000000000000, -0.0000000000000000000, 1.000000000000000000 ) ) ;
#234 = ORIENTED_EDGE ( 'NONE', *, *, #351, .T. ) ;
#235 = ORIENTED_EDGE ( 'NONE', *, *, #326, .T. ) ;
#236 =( LENGTH_UNIT ( ) NAMED_UNIT ( * ) SI_UNIT ( .MILLI., .METRE. ) );
#237 = ORIENTED_EDGE ( 'NONE', *, *, #263, .T. ) ;
#238 = CONICAL_SURFACE ( 'NONE', #339, 12.50000000000000000, 0.08726646259971261588 ) ;
#239 = CARTESIAN_POINT ( 'NONE',  ( 13.70734355665769755, 0.0000000000000000000, -7.850000000000009415 ) ) ;
#240 = EDGE_CURVE ( 'NONE', #163, #310, #36, .T. ) ;
#241 = CARTESIAN_POINT ( 'NONE',  ( 0.0000000000000000000, 0.0000000000000000000, 18.94999999999999574 ) ) ;
#242 = DIRECTION ( 'NONE',  ( -0.0000000000000000000, -0.0000000000000000000, 1.000000000000000000 ) ) ;
#243 = DIRECTION ( 'NONE',  ( -0.0000000000000000000, -0.0000000000000000000, 1.000000000000000000 ) ) ;
#244 = DIRECTION ( 'NONE',  ( -0.0000000000000000000, -0.0000000000000000000, 1.000000000000000000 ) ) ;
#245 =( NAMED_UNIT ( * ) SI_UNIT ( $, .STERADIAN. ) SOLID_ANGLE_UNIT ( ) );
#246 = DIRECTION ( 'NONE',  ( 0.0000000000000000000, 0.0000000000000000000, 1.000000000000000000 ) ) ;
#247 = VERTEX_POINT ( 'NONE', #276 ) ;
#248 = CARTESIAN_POINT ( 'NONE',  ( 23.00000000000000000, 0.0000000000000000000, 18.94999999999999574 ) ) ;
#249 = ORIENTED_EDGE ( 'NONE', *, *, #351, .F. ) ;
#250 = AXIS2_PLACEMENT_3D ( 'NONE', #355, #378, #77 ) ;
#251 = EDGE_CURVE ( 'NONE', #315, #356, #280, .T. ) ;
#252 = CARTESIAN_POINT ( 'NONE',  ( -23.00000000000000000, 2.816687638038912352E-15, 73.98303990182711232 ) ) ;
#253 = DIRECTION ( 'NONE',  ( 1.000000000000000000, 0.0000000000000000000, 0.0000000000000000000 ) ) ;
#254 = EDGE_CURVE ( 'NONE', #54, #130, #128, .T. ) ;
#255 = CIRCLE ( 'NONE', #379, 6.099999999999992539 ) ;
#256 = CARTESIAN_POINT ( 'NONE',  ( 12.50000000000000000, 0.0000000000000000000, -21.65000000000000213 ) ) ;
#257 = ORIENTED_EDGE ( 'NONE', *, *, #326, .F. ) ;
#258 = CARTESIAN_POINT ( 'NONE',  ( 0.0000000000000000000, 0.0000000000000000000, -7.850000000000009415 ) ) ;
#259 = ORIENTED_EDGE ( 'NONE', *, *, #269, .F. ) ;
#260 = CARTESIAN_POINT ( 'NONE',  ( 0.0000000000000000000, 0.0000000000000000000, 73.98303990182711232 ) ) ;
#261 = VERTEX_POINT ( 'NONE', #97 ) ;
#262 = AXIS2_PLACEMENT_3D ( 'NONE', #333, #29, #111 ) ;
#263 = EDGE_CURVE ( 'NONE', #386, #54, #391, .T. ) ;
#264 = EDGE_LOOP ( 'NONE', ( #68, #122, #139, #278 ) ) ;
#265 = PRODUCT ( '6AD6E0A4-0B31-42C1-987F-D0BC757DF98F', '6AD6E0A4-0B31-42C1-987F-D0BC757DF98F', '', ( #153 ) ) ;
#266 = FILL_AREA_STYLE ('',( #174 ) ) ;
#267 = ORIENTED_EDGE ( 'NONE', *, *, #254, .F. ) ;
#268 = CARTESIAN_POINT ( 'NONE',  ( 0.0000000000000000000, 0.0000000000000000000, -21.65000000000000213 ) ) ;
#269 = EDGE_CURVE ( 'NONE', #299, #11, #62, .T. ) ;
#270 = AXIS2_PLACEMENT_3D ( 'NONE', #179, #243, #56 ) ;
#271 = DIRECTION ( 'NONE',  ( -0.0000000000000000000, -0.0000000000000000000, 1.000000000000000000 ) ) ;
#272 = CYLINDRICAL_SURFACE ( 'NONE', #185, 6.099999999999995204 ) ;
#273 = CARTESIAN_POINT ( 'NONE',  ( 0.0000000000000000000, 0.0000000000000000000, 73.98303990182711232 ) ) ;
#274 = DIRECTION ( 'NONE',  ( -0.0000000000000000000, -0.0000000000000000000, 1.000000000000000000 ) ) ;
#275 = AXIS2_PLACEMENT_3D ( 'NONE', #329, #183, #114 ) ;
#276 = CARTESIAN_POINT ( 'NONE',  ( 6.099999999999997868, 0.0000000000000000000, -21.65000000000000213 ) ) ;
#277 = DIRECTION ( 'NONE',  ( 1.000000000000000000, 0.0000000000000000000, 0.0000000000000000000 ) ) ;
#278 = ORIENTED_EDGE ( 'NONE', *, *, #117, .F. ) ;
#279 = EDGE_CURVE ( 'NONE', #386, #189, #288, .T. ) ;
#280 = LINE ( 'NONE', #67, #354 ) ;
#281 = EDGE_LOOP ( 'NONE', ( #293, #297 ) ) ;
#282 = AXIS2_PLACEMENT_3D ( 'NONE', #284, #285, #5 ) ;
#283 = AXIS2_PLACEMENT_3D ( 'NONE', #38, #312, #10 ) ;
#284 = CARTESIAN_POINT ( 'NONE',  ( 0.0000000000000000000, 0.0000000000000000000, -7.850000000000009415 ) ) ;
#285 = DIRECTION ( 'NONE',  ( -0.0000000000000000000, -0.0000000000000000000, 1.000000000000000000 ) ) ;
#286 = EDGE_CURVE ( 'NONE', #189, #130, #332, .T. ) ;
#287 = CARTESIAN_POINT ( 'NONE',  ( 0.0000000000000000000, 0.0000000000000000000, 0.0000000000000000000 ) ) ;
#288 = LINE ( 'NONE', #169, #147 ) ;
#289 = ORIENTED_EDGE ( 'NONE', *, *, #90, .T. ) ;
#290 = AXIS2_PLACEMENT_3D ( 'NONE', #268, #145, #31 ) ;
#291 = VERTEX_POINT ( 'NONE', #324 ) ;
#292 = FACE_BOUND ( 'NONE', #80, .T. ) ;
#293 = ORIENTED_EDGE ( 'NONE', *, *, #263, .F. ) ;
#294 = EDGE_CURVE ( 'NONE', #102, #163, #158, .T. ) ;
#295 = DIRECTION ( 'NONE',  ( 1.000000000000000000, 0.0000000000000000000, 0.0000000000000000000 ) ) ;
#296 = UNCERTAINTY_MEASURE_WITH_UNIT (LENGTH_MEASURE( 1.000000000000000082E-05 ), #236, 'distance_accuracy_value', 'NONE');
#297 = ORIENTED_EDGE ( 'NONE', *, *, #52, .F. ) ;
#298 = PLANE ( 'NONE',  #165 ) ;
#299 = VERTEX_POINT ( 'NONE', #21 ) ;
#300 = SURFACE_STYLE_FILL_AREA ( #266 ) ;
#301 = CARTESIAN_POINT ( 'NONE',  ( 0.0000000000000000000, 0.0000000000000000000, 20.14999999999999503 ) ) ;
#302 = DIRECTION ( 'NONE',  ( -0.0000000000000000000, -0.0000000000000000000, 1.000000000000000000 ) ) ;
#303 =( GEOMETRIC_REPRESENTATION_CONTEXT ( 3 ) GLOBAL_UNCERTAINTY_ASSIGNED_CONTEXT ( ( #296 ) ) GLOBAL_UNIT_ASSIGNED_CONTEXT ( ( #236, #327, #245 ) ) REPRESENTATION_CONTEXT ( 'NONE', 'WORKASPACE' ) );
#304 = AXIS2_PLACEMENT_3D ( 'NONE', #348, #357, #322 ) ;
#305 = DIRECTION ( 'NONE',  ( -0.0000000000000000000, -0.0000000000000000000, 1.000000000000000000 ) ) ;
#306 = CARTESIAN_POINT ( 'NONE',  ( -12.50000000000000000, 1.604736970040793056E-15, -21.65000000000000213 ) ) ;
#307 = CARTESIAN_POINT ( 'NONE',  ( 0.0000000000000000000, 0.0000000000000000000, 20.14999999999999503 ) ) ;
#308 = CYLINDRICAL_SURFACE ( 'NONE', #118, 23.00000000000000000 ) ;
#309 = CIRCLE ( 'NONE', #66, 28.14999999999999858 ) ;
#310 = VERTEX_POINT ( 'NONE', #46 ) ;
#311 = DIRECTION ( 'NONE',  ( 1.000000000000000000, 0.0000000000000000000, 0.0000000000000000000 ) ) ;
#312 = DIRECTION ( 'NONE',  ( -0.0000000000000000000, -0.0000000000000000000, 1.000000000000000000 ) ) ;
#313 =( NAMED_UNIT ( * ) SI_UNIT ( $, .STERADIAN. ) SOLID_ANGLE_UNIT ( ) );
#314 = DIRECTION ( 'NONE',  ( 0.0000000000000000000, -0.0000000000000000000, 1.000000000000000000 ) ) ;
#315 = VERTEX_POINT ( 'NONE', #75 ) ;
#316 = LINE ( 'NONE', #13, #45 ) ;
#317 = ORIENTED_EDGE ( 'NONE', *, *, #40, .F. ) ;
#318 = VECTOR ( 'NONE', #42, 1000.000000000000000 ) ;
#319 = DIRECTION ( 'NONE',  ( -0.0000000000000000000, -0.0000000000000000000, 1.000000000000000000 ) ) ;
#320 = ORIENTED_EDGE ( 'NONE', *, *, #359, .F. ) ;
#321 = ADVANCED_FACE ( 'NONE', ( #350, #292 ), #298, .F. ) ;
#322 = DIRECTION ( 'NONE',  ( 1.000000000000000000, 0.0000000000000000000, 0.0000000000000000000 ) ) ;
#323 = ORIENTED_EDGE ( 'NONE', *, *, #15, .F. ) ;
#324 = CARTESIAN_POINT ( 'NONE',  ( 28.14999999999999858, 0.0000000000000000000, 20.14999999999999503 ) ) ;
#325 = ORIENTED_EDGE ( 'NONE', *, *, #279, .T. ) ;
#326 = EDGE_CURVE ( 'NONE', #247, #299, #316, .T. ) ;
#327 =( NAMED_UNIT ( * ) PLANE_ANGLE_UNIT ( ) SI_UNIT ( $, .RADIAN. ) );
#328 = CARTESIAN_POINT ( 'NONE',  ( 0.0000000000000000000, 0.0000000000000000000, -21.65000000000000213 ) ) ;
#329 = CARTESIAN_POINT ( 'NONE',  ( 0.0000000000000000000, 0.0000000000000000000, -21.65000000000000213 ) ) ;
#330 = FACE_OUTER_BOUND ( 'NONE', #108, .T. ) ;
#331 = CIRCLE ( 'NONE', #290, 6.099999999999997868 ) ;
#332 = CIRCLE ( 'NONE', #9, 23.00000000000000000 ) ;
#333 = CARTESIAN_POINT ( 'NONE',  ( 0.0000000000000000000, 6.099999999999992539, 21.64999999999999503 ) ) ;
#334 = ADVANCED_FACE ( 'NONE', ( #198 ), #205, .T. ) ;
#335 = PLANE ( 'NONE',  #262 ) ;
#336 = CARTESIAN_POINT ( 'NONE',  ( -12.50000000000000000, 1.530808498934191521E-15, -21.65000000000000213 ) ) ;
#337 = APPLICATION_PROTOCOL_DEFINITION ( 'draft international standard', 'automotive_design', 1998, #94 ) ;
#338 = AXIS2_PLACEMENT_3D ( 'NONE', #287, #246, #225 ) ;
#339 = AXIS2_PLACEMENT_3D ( 'NONE', #372, #345, #277 ) ;
#340 = DIRECTION ( 'NONE',  ( -0.08715574274765432172, 1.067350013832250060E-17, 0.9961946980917458783 ) ) ;
#341 = CIRCLE ( 'NONE', #32, 28.14999999999999858 ) ;
#342 = ORIENTED_EDGE ( 'NONE', *, *, #90, .F. ) ;
#343 = CARTESIAN_POINT ( 'NONE',  ( 0.0000000000000000000, 0.0000000000000000000, 73.98303990182711232 ) ) ;
#344 = ORIENTED_EDGE ( 'NONE', *, *, #110, .T. ) ;
#345 = DIRECTION ( 'NONE',  ( -0.0000000000000000000, -0.0000000000000000000, 1.000000000000000000 ) ) ;
#346 = DIRECTION ( 'NONE',  ( -0.0000000000000000000, -0.0000000000000000000, 1.000000000000000000 ) ) ;
#347 = UNCERTAINTY_MEASURE_WITH_UNIT (LENGTH_MEASURE( 1.000000000000000082E-05 ), #203, 'distance_accuracy_value', 'NONE');
#348 = CARTESIAN_POINT ( 'NONE',  ( 0.0000000000000000000, 0.0000000000000000000, 73.98303990182711232 ) ) ;
#349 = ORIENTED_EDGE ( 'NONE', *, *, #254, .T. ) ;
#350 = FACE_OUTER_BOUND ( 'NONE', #19, .T. ) ;
#351 = EDGE_CURVE ( 'NONE', #310, #41, #373, .T. ) ;
#352 = ORIENTED_EDGE ( 'NONE', *, *, #22, .F. ) ;
#353 = CONICAL_SURFACE ( 'NONE', #7, 23.00000000000000000, 1.341871330279287511 ) ;
#354 = VECTOR ( 'NONE', #8, 1000.000000000000000 ) ;
#355 = CARTESIAN_POINT ( 'NONE',  ( 0.0000000000000000000, 0.0000000000000000000, -21.65000000000000213 ) ) ;
#356 = VERTEX_POINT ( 'NONE', #49 ) ;
#357 = DIRECTION ( 'NONE',  ( -0.0000000000000000000, -0.0000000000000000000, 1.000000000000000000 ) ) ;
#358 = EDGE_LOOP ( 'NONE', ( #259, #323 ) ) ;
#359 = EDGE_CURVE ( 'NONE', #102, #41, #53, .T. ) ;
#360 = PRESENTATION_STYLE_ASSIGNMENT (( #176 ) ) ;
#361 = EDGE_LOOP ( 'NONE', ( #141, #78 ) ) ;
#362 = CIRCLE ( 'NONE', #84, 6.099999999999997868 ) ;
#363 = DIRECTION ( 'NONE',  ( -0.0000000000000000000, -0.0000000000000000000, 1.000000000000000000 ) ) ;
#364 = DIRECTION ( 'NONE',  ( -0.0000000000000000000, -0.0000000000000000000, 1.000000000000000000 ) ) ;
#365 = CARTESIAN_POINT ( 'NONE',  ( 12.50000000000000000, 0.0000000000000000000, -21.65000000000000213 ) ) ;
#366 = AXIS2_PLACEMENT_3D ( 'NONE', #24, #242, #213 ) ;
#367 = DIRECTION ( 'NONE',  ( 1.000000000000000000, 0.0000000000000000000, 0.0000000000000000000 ) ) ;
#368 = SURFACE_SIDE_STYLE ('',( #98 ) ) ;
#369 = ADVANCED_FACE ( 'NONE', ( #101 ), #207, .F. ) ;
#370 = CARTESIAN_POINT ( 'NONE',  ( 0.0000000000000000000, 0.0000000000000000000, 18.94999999999999574 ) ) ;
#371 = ORIENTED_EDGE ( 'NONE', *, *, #173, .F. ) ;
#372 = CARTESIAN_POINT ( 'NONE',  ( 0.0000000000000000000, 0.0000000000000000000, -21.65000000000000213 ) ) ;
#373 = CIRCLE ( 'NONE', #127, 13.70734355665769755 ) ;
#374 = ORIENTED_EDGE ( 'NONE', *, *, #294, .T. ) ;
#375 = DIRECTION ( 'NONE',  ( -0.0000000000000000000, -0.0000000000000000000, 1.000000000000000000 ) ) ;
#376 = DIRECTION ( 'NONE',  ( 1.000000000000000000, 0.0000000000000000000, 0.0000000000000000000 ) ) ;
#377 = EDGE_CURVE ( 'NONE', #76, #11, #195, .T. ) ;
#378 = DIRECTION ( 'NONE',  ( -0.0000000000000000000, -0.0000000000000000000, 1.000000000000000000 ) ) ;
#379 = AXIS2_PLACEMENT_3D ( 'NONE', #137, #363, #116 ) ;
#380 = DIRECTION ( 'NONE',  ( 1.000000000000000000, 0.0000000000000000000, 0.0000000000000000000 ) ) ;
#381 = ORIENTED_EDGE ( 'NONE', *, *, #377, .T. ) ;
#382 = CARTESIAN_POINT ( 'NONE',  ( 23.00000000000000000, 0.0000000000000000000, -7.849999999999996092 ) ) ;
#383 = EDGE_LOOP ( 'NONE', ( #20, #344, #105, #249 ) ) ;
#384 = EDGE_LOOP ( 'NONE', ( #374, #47, #231, #320 ) ) ;
#385 = AXIS2_PLACEMENT_3D ( 'NONE', #343, #154, #33 ) ;
#386 = VERTEX_POINT ( 'NONE', #382 ) ;
#387 = ORIENTED_EDGE ( 'NONE', *, *, #73, .F. ) ;
#388 = PRESENTATION_LAYER_ASSIGNMENT (  '', '', ( #92 ) ) ;
#389 = CARTESIAN_POINT ( 'NONE',  ( -23.00000000000000000, 2.816687638038912352E-15, -7.849999999999996092 ) ) ;
#390 = STYLED_ITEM ( 'NONE', ( #4 ), #197 ) ;
#391 = CIRCLE ( 'NONE', #232, 23.00000000000000000 ) ;
#392 = FACE_OUTER_BOUND ( 'NONE', #134, .T. ) ;
#393 = EDGE_CURVE ( 'NONE', #130, #315, #16, .T. ) ;
#394 = LINE ( 'NONE', #215, #180 ) ;
ENDSEC;
END-ISO-10303-21;
