SolidWorks IGES file using analytic representation for surfaces         S      1
1H,,1H;,12HS0713.SLDPRT,49HC:\Users\turcimas\Desktop\6giu11\S0713-685702G      1
.IGS,15HSolidWorks 2011,15HSolidWorks 2011,32,308,15,308,15,12HS0713.SLDG      2
PRT,1.,2,2HMM,50,0.125,13H110607.045357,1E-008,499990.,8Hturcimas,,11,  G      3
0,13H110607.045357;                                                     G      4
     314       1       0       0       0                        00000200D      1
     314       0       8       1       0                               0D      2
     502       2       0       0       0                        00010000D      3
     502       0       0       4       1                               0D      4
     100       6       0       0       0                        00010000D      5
     100       0       0       1       0                               0D      6
     110       7       0       0       0                        01010000D      7
     110       0       0       1       0                               0D      8
     110       8       0       0       0                        01010000D      9
     110       0       0       1       0                               0D     10
     100       9       0       0       0                        00010000D     11
     100       0       0       1       0                               0D     12
     110      10       0       0       0                        01010000D     13
     110       0       0       1       0                               0D     14
     110      11       0       0       0                        01010000D     15
     110       0       0       1       0                               0D     16
     110      12       0       0       0                        01010000D     17
     110       0       0       1       0                               0D     18
     110      13       0       0       0                        01010000D     19
     110       0       0       1       0                               0D     20
     100      14       0       0       0                        00010000D     21
     100       0       0       1       0                               0D     22
     110      15       0       0       0                        01010000D     23
     110       0       0       1       0                               0D     24
     110      16       0       0       0                        01010000D     25
     110       0       0       1       0                               0D     26
     110      17       0       0       0                        01010000D     27
     110       0       0       1       0                               0D     28
     100      18       0       0       0                        00010000D     29
     100       0       0       1       0                               0D     30
     110      19       0       0       0                        01010000D     31
     110       0       0       1       0                               0D     32
     100      20       0       0       0                        00010000D     33
     100       0       0       1       0                               0D     34
     110      21       0       0       0                        01010000D     35
     110       0       0       1       0                               0D     36
     110      22       0       0       0                        01010000D     37
     110       0       0       1       0                               0D     38
     110      23       0       0       0                        01010000D     39
     110       0       0       1       0                               0D     40
     100      24       0       0       0                        00010000D     41
     100       0       0       1       0                               0D     42
     110      25       0       0       0                        01010000D     43
     110       0       0       1       0                               0D     44
     110      26       0       0       0                        01010000D     45
     110       0       0       1       0                               0D     46
     100      27       0       0       0                        00010000D     47
     100       0       0       1       0                               0D     48
     110      28       0       0       0                        01010000D     49
     110       0       0       1       0                               0D     50
     100      29       0       0       0                        00010000D     51
     100       0       0       1       0                               0D     52
     504      30       0       0       0                        00010000D     53
     504       0       0       5       1                               0D     54
     110      35       0       0       0                        01010000D     55
     110       0       0       1       0                               0D     56
     110      36       0       0       0                        01010000D     57
     110       0       0       1       0                               0D     58
     120      37       0       0       0                        01010000D     59
     120       0      -1       1       0                               0D     60
     508      38       0       0       0                        00010000D     61
     508       0       0       1       1                               0D     62
     510      39       0       0       0                        00010000D     63
     510       0      -1       1       1                               0D     64
     110      40       0       0       0                        01010000D     65
     110       0       0       1       0                               0D     66
     110      41       0       0       0                        01010000D     67
     110       0       0       1       0                               0D     68
     120      42       0       0       0                        01010000D     69
     120       0      -1       1       0                               0D     70
     508      43       0       0       0                        00010000D     71
     508       0       0       1       1                               0D     72
     510      44       0       0       0                        00010000D     73
     510       0      -1       1       1                               0D     74
     116      45       0       0       0                        00010000D     75
     116       0       0       1       0                               0D     76
     123      46       0       0       0                        00010200D     77
     123       0       0       1       0                               0D     78
     123      47       0       0       0                        00010200D     79
     123       0       0       1       0                               0D     80
     190      48       0       0       0                        00010000D     81
     190       0      -1       1       1                               0D     82
     508      49       0       0       0                        00010000D     83
     508       0       0       1       1                               0D     84
     510      50       0       0       0                        00010000D     85
     510       0      -1       1       1                               0D     86
     116      51       0       0       0                        00010000D     87
     116       0       0       1       0                               0D     88
     123      52       0       0       0                        00010200D     89
     123       0       0       1       0                               0D     90
     123      53       0       0       0                        00010200D     91
     123       0       0       1       0                               0D     92
     190      54       0       0       0                        00010000D     93
     190       0      -1       1       1                               0D     94
     508      55       0       0       0                        00010000D     95
     508       0       0       1       1                               0D     96
     510      56       0       0       0                        00010000D     97
     510       0      -1       1       1                               0D     98
     116      57       0       0       0                        00010000D     99
     116       0       0       1       0                               0D    100
     123      58       0       0       0                        00010200D    101
     123       0       0       1       0                               0D    102
     123      59       0       0       0                        00010200D    103
     123       0       0       1       0                               0D    104
     190      60       0       0       0                        00010000D    105
     190       0      -1       1       1                               0D    106
     508      61       0       0       0                        00010000D    107
     508       0       0       1       1                               0D    108
     510      62       0       0       0                        00010000D    109
     510       0      -1       1       1                               0D    110
     116      63       0       0       0                        00010000D    111
     116       0       0       1       0                               0D    112
     123      64       0       0       0                        00010200D    113
     123       0       0       1       0                               0D    114
     123      65       0       0       0                        00010200D    115
     123       0       0       1       0                               0D    116
     190      66       0       0       0                        00010000D    117
     190       0      -1       1       1                               0D    118
     508      67       0       0       0                        00010000D    119
     508       0       0       1       1                               0D    120
     510      68       0       0       0                        00010000D    121
     510       0      -1       1       1                               0D    122
     116      69       0       0       0                        00010000D    123
     116       0       0       1       0                               0D    124
     123      70       0       0       0                        00010200D    125
     123       0       0       1       0                               0D    126
     123      71       0       0       0                        00010200D    127
     123       0       0       1       0                               0D    128
     190      72       0       0       0                        00010000D    129
     190       0      -1       1       1                               0D    130
     508      73       0       0       0                        00010000D    131
     508       0       0       1       1                               0D    132
     508      74       0       0       0                        00010000D    133
     508       0       0       1       1                               0D    134
     510      75       0       0       0                        00010000D    135
     510       0      -1       1       1                               0D    136
     116      76       0       0       0                        00010000D    137
     116       0       0       1       0                               0D    138
     123      77       0       0       0                        00010200D    139
     123       0       0       1       0                               0D    140
     123      78       0       0       0                        00010200D    141
     123       0       0       1       0                               0D    142
     190      79       0       0       0                        00010000D    143
     190       0      -1       1       1                               0D    144
     508      80       0       0       0                        00010000D    145
     508       0       0       1       1                               0D    146
     508      81       0       0       0                        00010000D    147
     508       0       0       1       1                               0D    148
     510      82       0       0       0                        00010000D    149
     510       0      -1       1       1                               0D    150
     110      83       0       0       0                        01010000D    151
     110       0       0       1       0                               0D    152
     110      84       0       0       0                        01010000D    153
     110       0       0       1       0                               0D    154
     120      85       0       0       0                        01010000D    155
     120       0      -1       1       0                               0D    156
     508      86       0       0       0                        00010000D    157
     508       0       0       1       1                               0D    158
     510      87       0       0       0                        00010000D    159
     510       0      -1       1       1                               0D    160
     116      88       0       0       0                        00010000D    161
     116       0       0       1       0                               0D    162
     123      89       0       0       0                        00010200D    163
     123       0       0       1       0                               0D    164
     123      90       0       0       0                        00010200D    165
     123       0       0       1       0                               0D    166
     190      91       0       0       0                        00010000D    167
     190       0      -1       1       1                               0D    168
     508      92       0       0       0                        00010000D    169
     508       0       0       1       1                               0D    170
     508      93       0       0       0                        00010000D    171
     508       0       0       1       1                               0D    172
     510      94       0       0       0                        00010000D    173
     510       0      -1       1       1                               0D    174
     110      95       0       0       0                        01010000D    175
     110       0       0       1       0                               0D    176
     110      96       0       0       0                        01010000D    177
     110       0       0       1       0                               0D    178
     120      97       0       0       0                        01010000D    179
     120       0      -1       1       0                               0D    180
     508      98       0       0       0                        00010000D    181
     508       0       0       1       1                               0D    182
     510      99       0       0       0                        00010000D    183
     510       0      -1       1       1                               0D    184
     514     100       0       0       0                        00010000D    185
     514       0       0       2       1                               0D    186
     186     102       0       0       0                        00000000D    187
     186       0       0       1       0                               0D    188
314,79.2156862745098,81.9607843137255,93.3333333333333,;               1P      1
502,16,8.,0.,-6.,-8.,0.,4.,-20.,20.,0.,10.,0.,0.,-10.,0.,-6.,          3P      2
20.,20.,4.,20.,20.,0.,-20.,-20.,0.,-10.,0.,0.,8.,0.,4.,-20.,           3P      3
20.,4.,20.,-20.,4.,20.,-20.,0.,10.,0.,-6.,-20.,-20.,4.,-8.,0.,         3P      4
-6.;                                                                   3P      5
100,4.,0.,0.,8.,0.,-8.,0.;                                             5P      6
110,20.,20.,4.,20.,20.,0.;                                             7P      7
110,20.,-20.,4.,20.,-20.,0.;                                           9P      8
100,-6.,0.,0.,8.,0.,-8.,0.;                                           11P      9
110,-20.,-20.,4.,20.,-20.,4.;                                         13P     10
110,-20.,20.,4.,-20.,20.,0.;                                          15P     11
110,20.,20.,4.,-20.,20.,4.;                                           17P     12
110,20.,-20.,0.,20.,20.,0.;                                           19P     13
100,0.,0.,0.,10.,0.,-10.,0.;                                          21P     14
110,-10.,0.,-6.,-10.,0.,0.;                                           23P     15
110,-20.,-20.,0.,20.,-20.,0.;                                         25P     16
110,-20.,20.,0.,-20.,-20.,0.;                                         27P     17
100,-6.,0.,0.,-10.,0.,10.,0.;                                         29P     18
110,20.,-20.,4.,20.,20.,4.;                                           31P     19
100,-6.,0.,0.,10.,0.,-10.,0.;                                         33P     20
110,20.,20.,0.,-20.,20.,0.;                                           35P     21
110,-20.,-20.,4.,-20.,-20.,0.;                                        37P     22
110,-8.,0.,-6.,-8.,0.,4.;                                             39P     23
100,0.,0.,0.,-10.,0.,10.,0.;                                          41P     24
110,-20.,20.,4.,-20.,-20.,4.;                                         43P     25
110,10.,0.,-6.,10.,0.,0.;                                             45P     26
100,-6.,0.,0.,-8.,0.,8.,0.;                                           47P     27
110,8.,0.,-6.,8.,0.,4.;                                               49P     28
100,4.,0.,0.,-8.,0.,8.,0.;                                            51P     29
504,24,5,3,10,3,2,7,3,6,3,7,9,3,12,3,13,11,3,1,3,16,13,3,15,3,        53P     30
12,15,3,11,3,3,17,3,6,3,11,19,3,13,3,7,21,3,4,3,9,23,3,5,3,9,         53P     31
25,3,8,3,13,27,3,3,3,8,29,3,5,3,14,31,3,12,3,6,33,3,14,3,5,35,        53P     32
3,7,3,3,37,3,15,3,8,39,3,16,3,2,41,3,9,3,4,43,3,11,3,15,45,3,         53P     33
14,3,4,47,3,16,3,1,49,3,1,3,10,51,3,2,3,10;                           53P     34
110,0.,0.,4.,0.,0.,1004.;                                             55P     35
110,8.,0.,-6.,8.,0.,4.;                                               57P     36
120,55,57,0.,6.28318530717959;                                        59P     37
508,4,0,53,22,0,0,0,53,18,1,0,0,53,24,1,0,0,53,23,0,0;                61P     38
510,59,1,1,61;                                                        63P     39
110,0.,0.,-6.,0.,0.,994.;                                             65P     40
110,10.,0.,0.,10.,0.,-6.;                                             67P     41
120,65,67,0.,6.28318530717959;                                        69P     42
508,4,0,53,15,1,0,0,53,10,1,0,0,53,9,0,0,0,53,21,0,0;                 71P     43
510,69,1,1,71;                                                        73P     44
116,-20.,20.,4.,;                                                     75P     45
123,1.,0.,0.;                                                         77P     46
123,0.,0.707106781,-0.707106781;                                      79P     47
190,75,77,79;                                                         81P     48
508,4,0,53,12,1,0,0,53,17,0,0,0,53,20,0,0,0,53,6,1,0;                 83P     49
510,81,1,1,83;                                                        85P     50
116,-20.,-20.,4.,;                                                    87P     51
123,0.,1.,0.;                                                         89P     52
123,-0.707106781,0.,0.707106781;                                      91P     53
190,87,89,91;                                                         93P     54
508,4,0,53,11,1,0,0,53,3,0,0,0,53,5,0,0,0,53,17,1,0;                  95P     55
510,93,1,1,95;                                                        97P     56
116,20.,20.,4.,;                                                      99P     57
123,-1.,0.,0.;                                                       101P     58
123,0.,-0.707106781,0.707106781;                                     103P     59
190,99,101,103;                                                      105P     60
508,4,0,53,8,1,0,0,53,2,0,0,0,53,14,0,0,0,53,3,1,0;                  107P     61
510,105,1,1,107;                                                     109P     62
116,-20.,20.,4.,;                                                    111P     63
123,0.,-1.,0.;                                                       113P     64
123,0.707106781,0.,-0.707106781;                                     115P     65
190,111,113,115;                                                     117P     66
508,4,0,53,16,1,0,0,53,6,0,0,0,53,7,0,0,0,53,2,1,0;                  119P     67
510,117,1,1,119;                                                     121P     68
116,-20.,-20.,4.,;                                                   123P     69
123,0.,0.,1.;                                                        125P     70
123,0.707106781,-0.707106781,0.;                                     127P     71
190,123,125,127;                                                     129P     72
508,4,0,53,20,1,0,0,53,5,1,0,0,53,14,1,0,0,53,7,1,0;                 131P     73
508,2,0,53,1,0,0,0,53,24,0,0;                                        133P     74
510,129,2,1,131,133;                                                 135P     75
116,-20.,-20.,0.,;                                                   137P     76
123,0.,0.,1.;                                                        139P     77
123,0.707106781,-0.707106781,0.;                                     141P     78
190,137,139,141;                                                     143P     79
508,4,0,53,12,0,0,0,53,16,0,0,0,53,8,0,0,0,53,11,0,0;                145P     80
508,2,0,53,9,1,0,0,53,19,1,0;                                        147P     81
510,143,2,1,145,147;                                                 149P     82
110,0.,0.,-6.,0.,0.,994.;                                            151P     83
110,10.,0.,0.,10.,0.,-6.;                                            153P     84
120,151,153,0.,6.28318530717959;                                     155P     85
508,4,0,53,10,0,0,0,53,13,1,0,0,53,21,1,0,0,53,19,0,0;               157P     86
510,155,1,1,157;                                                     159P     87
116,0.,0.,-6.,;                                                      161P     88
123,0.,0.,1.;                                                        163P     89
123,0.707106781,-0.707106781,0.;                                     165P     90
190,161,163,165;                                                     167P     91
508,2,0,53,15,0,0,0,53,13,0,0;                                       169P     92
508,2,0,53,4,1,0,0,53,22,1,0;                                        171P     93
510,167,2,1,169,171;                                                 173P     94
110,0.,0.,4.,0.,0.,1004.;                                            175P     95
110,8.,0.,-6.,8.,0.,4.;                                              177P     96
120,175,177,0.,6.28318530717959;                                     179P     97
508,4,0,53,18,0,0,0,53,4,0,0,0,53,23,1,0,0,53,1,1,0;                 181P     98
510,179,1,1,181;                                                     183P     99
514,11,63,1,73,1,85,1,97,1,109,1,121,1,135,1,149,1,159,1,173,1,      185P    100
183,1;                                                               185P    101
186,185,1,0;                                                         187P    102
S      1G      4D    188P    102                                        T      1
