ISO-10303-21;
HEADER;
FILE_DESCRIPTION (( 'STEP AP214' ),
    '1' );
FILE_NAME ('C2DCC654-A849-42B3-89CD-82C4857670D8.STEP',
    '2023-08-02T06:02:52',
    ( '' ),
    ( '' ),
    'SwSTEP 2.0',
    'SolidWorks 2022',
    '' );
FILE_SCHEMA (( 'AUTOMOTIVE_DESIGN' ));
ENDSEC;

DATA;
#1 = ORIENTED_EDGE ( 'NONE', *, *, #21, .T. ) ;
#2 = SURFACE_STYLE_USAGE ( .BOTH. , #180 ) ;
#3 = UNCERTAINTY_MEASURE_WITH_UNIT (LENGTH_MEASURE( 1.000000000000000082E-05 ), #141, 'distance_accuracy_value', 'NONE');
#4 = PLANE ( 'NONE',  #156 ) ;
#5 = LINE ( 'NONE', #63, #181 ) ;
#6 = ORIENTED_EDGE ( 'NONE', *, *, #194, .T. ) ;
#7 = CARTESIAN_POINT ( 'NONE',  ( 0.0000000000000000000, 0.0000000000000000000, 1.000000000000000000 ) ) ;
#8 = DIRECTION ( 'NONE',  ( 1.000000000000000000, 0.0000000000000000000, -0.0000000000000000000 ) ) ;
#9 = COLOUR_RGB ( '',0.2509803921568627416, 0.2509803921568627416, 0.2509803921568627416 ) ;
#10 = DIRECTION ( 'NONE',  ( 1.000000000000000000, 0.0000000000000000000, 0.0000000000000000000 ) ) ;
#11 = DIRECTION ( 'NONE',  ( 0.0000000000000000000, 0.0000000000000000000, 1.000000000000000000 ) ) ;
#12 =( LENGTH_UNIT ( ) NAMED_UNIT ( * ) SI_UNIT ( .MILLI., .METRE. ) );
#13 = AXIS2_PLACEMENT_3D ( 'NONE', #88, #14, #74 ) ;
#14 = DIRECTION ( 'NONE',  ( 0.0000000000000000000, 0.0000000000000000000, 1.000000000000000000 ) ) ;
#15 = FILL_AREA_STYLE_COLOUR ( '', #9 ) ;
#16 = CIRCLE ( 'NONE', #23, 9.099999999999999645 ) ;
#17 = ORIENTED_EDGE ( 'NONE', *, *, #120, .T. ) ;
#18 = VECTOR ( 'NONE', #170, 1000.000000000000000 ) ;
#19 = FACE_OUTER_BOUND ( 'NONE', #129, .T. ) ;
#20 = CYLINDRICAL_SURFACE ( 'NONE', #33, 9.099999999999999645 ) ;
#21 = EDGE_CURVE ( 'NONE', #136, #96, #22, .T. ) ;
#22 = LINE ( 'NONE', #53, #18 ) ;
#23 = AXIS2_PLACEMENT_3D ( 'NONE', #60, #192, #10 ) ;
#24 = DIRECTION ( 'NONE',  ( -0.0000000000000000000, -0.0000000000000000000, -1.000000000000000000 ) ) ;
#25 = CARTESIAN_POINT ( 'NONE',  ( 9.099999999999999645, 1.114428587224091465E-15, -1.000000000000000000 ) ) ;
#26 = DIRECTION ( 'NONE',  ( 1.000000000000000000, 0.0000000000000000000, 0.0000000000000000000 ) ) ;
#27 = CARTESIAN_POINT ( 'NONE',  ( -9.099999999999999645, 0.0000000000000000000, 1.000000000000000000 ) ) ;
#28 = DIRECTION ( 'NONE',  ( 0.0000000000000000000, 0.0000000000000000000, 1.000000000000000000 ) ) ;
#29 = CARTESIAN_POINT ( 'NONE',  ( -9.099999999999999645, 0.0000000000000000000, -1.000000000000000000 ) ) ;
#30 = CIRCLE ( 'NONE', #58, 35.25000000000000000 ) ;
#31 = DIRECTION ( 'NONE',  ( 0.0000000000000000000, 0.0000000000000000000, 1.000000000000000000 ) ) ;
#32 = EDGE_CURVE ( 'NONE', #67, #143, #149, .T. ) ;
#33 = AXIS2_PLACEMENT_3D ( 'NONE', #70, #208, #41 ) ;
#34 = FILL_AREA_STYLE ('',( #184 ) ) ;
#35 = EDGE_CURVE ( 'NONE', #67, #110, #30, .T. ) ;
#36 = PRODUCT_CONTEXT ( 'NONE', #167, 'mechanical' ) ;
#37 = EDGE_LOOP ( 'NONE', ( #206, #17 ) ) ;
#38 = CARTESIAN_POINT ( 'NONE',  ( -35.25000000000000000, 0.0000000000000000000, 1.000000000000000000 ) ) ;
#39 = EDGE_CURVE ( 'NONE', #136, #145, #94, .T. ) ;
#40 = CARTESIAN_POINT ( 'NONE',  ( 0.0000000000000000000, 0.0000000000000000000, -1.000000000000000000 ) ) ;
#41 = DIRECTION ( 'NONE',  ( -1.000000000000000000, 0.0000000000000000000, 0.0000000000000000000 ) ) ;
#42 = FILL_AREA_STYLE ('',( #15 ) ) ;
#43 = DIRECTION ( 'NONE',  ( -0.0000000000000000000, -0.0000000000000000000, -1.000000000000000000 ) ) ;
#44 = CARTESIAN_POINT ( 'NONE',  ( 9.099999999999999645, 1.114428587224091465E-15, 1.000000000000000000 ) ) ;
#45 = DIRECTION ( 'NONE',  ( 0.0000000000000000000, 0.0000000000000000000, 1.000000000000000000 ) ) ;
#46 = ORIENTED_EDGE ( 'NONE', *, *, #21, .F. ) ;
#47 = EDGE_LOOP ( 'NONE', ( #189, #1, #151, #103 ) ) ;
#48 = PRODUCT_DEFINITION_CONTEXT ( 'detailed design', #140, 'design' ) ;
#49 = CIRCLE ( 'NONE', #201, 35.25000000000000000 ) ;
#50 = ORIENTED_EDGE ( 'NONE', *, *, #108, .F. ) ;
#51 = CARTESIAN_POINT ( 'NONE',  ( 0.0000000000000000000, 0.0000000000000000000, 1.000000000000000000 ) ) ;
#52 = FACE_BOUND ( 'NONE', #166, .T. ) ;
#53 = CARTESIAN_POINT ( 'NONE',  ( 9.099999999999999645, 1.114428587224091465E-15, 1.000000000000000000 ) ) ;
#54 = DIRECTION ( 'NONE',  ( 0.0000000000000000000, 0.0000000000000000000, 1.000000000000000000 ) ) ;
#55 = DIRECTION ( 'NONE',  ( 0.0000000000000000000, 0.0000000000000000000, 1.000000000000000000 ) ) ;
#56 = CARTESIAN_POINT ( 'NONE',  ( -35.25000000000000000, 0.0000000000000000000, -1.000000000000000000 ) ) ;
#57 = ADVANCED_FACE ( 'NONE', ( #134, #52 ), #4, .T. ) ;
#58 = AXIS2_PLACEMENT_3D ( 'NONE', #204, #84, #153 ) ;
#59 = AXIS2_PLACEMENT_3D ( 'NONE', #162, #45, #90 ) ;
#60 = CARTESIAN_POINT ( 'NONE',  ( 0.0000000000000000000, 0.0000000000000000000, 1.000000000000000000 ) ) ;
#61 = ORIENTED_EDGE ( 'NONE', *, *, #160, .F. ) ;
#62 = ORIENTED_EDGE ( 'NONE', *, *, #108, .T. ) ;
#63 = CARTESIAN_POINT ( 'NONE',  ( -9.099999999999999645, 0.0000000000000000000, 1.000000000000000000 ) ) ;
#64 = AXIS2_PLACEMENT_3D ( 'NONE', #131, #65, #132 ) ;
#65 = DIRECTION ( 'NONE',  ( 0.0000000000000000000, 0.0000000000000000000, 1.000000000000000000 ) ) ;
#66 = ADVANCED_FACE ( 'NONE', ( #115 ), #99, .T. ) ;
#67 = VERTEX_POINT ( 'NONE', #190 ) ;
#68 = DIRECTION ( 'NONE',  ( 0.0000000000000000000, 0.0000000000000000000, 1.000000000000000000 ) ) ;
#69 = UNCERTAINTY_MEASURE_WITH_UNIT (LENGTH_MEASURE( 1.000000000000000082E-05 ), #12, 'distance_accuracy_value', 'NONE');
#70 = CARTESIAN_POINT ( 'NONE',  ( 0.0000000000000000000, 0.0000000000000000000, 1.000000000000000000 ) ) ;
#71 = CYLINDRICAL_SURFACE ( 'NONE', #168, 35.25000000000000000 ) ;
#72 = CYLINDRICAL_SURFACE ( 'NONE', #121, 9.099999999999999645 ) ;
#73 = CIRCLE ( 'NONE', #118, 35.25000000000000000 ) ;
#74 = DIRECTION ( 'NONE',  ( 1.000000000000000000, 0.0000000000000000000, 0.0000000000000000000 ) ) ;
#75 = DIRECTION ( 'NONE',  ( -1.000000000000000000, 0.0000000000000000000, 0.0000000000000000000 ) ) ;
#76 = ORIENTED_EDGE ( 'NONE', *, *, #146, .F. ) ;
#77 = APPLICATION_PROTOCOL_DEFINITION ( 'draft international standard', 'automotive_design', 1998, #140 ) ;
#78 = ORIENTED_EDGE ( 'NONE', *, *, #175, .F. ) ;
#79 = CARTESIAN_POINT ( 'NONE',  ( 35.25000000000000000, 4.316879966994420283E-15, 1.000000000000000000 ) ) ;
#80 = UNCERTAINTY_MEASURE_WITH_UNIT (LENGTH_MEASURE( 1.000000000000000082E-05 ), #213, 'distance_accuracy_value', 'NONE');
#81 = MECHANICAL_DESIGN_GEOMETRIC_PRESENTATION_REPRESENTATION (  '', ( #210 ), #150 ) ;
#82 = EDGE_LOOP ( 'NONE', ( #130, #83 ) ) ;
#83 = ORIENTED_EDGE ( 'NONE', *, *, #146, .T. ) ;
#84 = DIRECTION ( 'NONE',  ( 0.0000000000000000000, 0.0000000000000000000, 1.000000000000000000 ) ) ;
#85 = CLOSED_SHELL ( 'NONE', ( #152, #66, #57, #122, #169, #92 ) ) ;
#86 = SURFACE_STYLE_USAGE ( .BOTH. , #87 ) ;
#87 = SURFACE_SIDE_STYLE ('',( #172 ) ) ;
#88 = CARTESIAN_POINT ( 'NONE',  ( 0.0000000000000000000, 0.0000000000000000000, -1.000000000000000000 ) ) ;
#89 = FACE_OUTER_BOUND ( 'NONE', #47, .T. ) ;
#90 = DIRECTION ( 'NONE',  ( 1.000000000000000000, 0.0000000000000000000, 0.0000000000000000000 ) ) ;
#91 = ORIENTED_EDGE ( 'NONE', *, *, #120, .F. ) ;
#92 = ADVANCED_FACE ( 'NONE', ( #19 ), #20, .F. ) ;
#93 =( GEOMETRIC_REPRESENTATION_CONTEXT ( 3 ) GLOBAL_UNCERTAINTY_ASSIGNED_CONTEXT ( ( #69 ) ) GLOBAL_UNIT_ASSIGNED_CONTEXT ( ( #12, #138, #139 ) ) REPRESENTATION_CONTEXT ( 'NONE', 'WORKASPACE' ) );
#94 = CIRCLE ( 'NONE', #159, 9.099999999999999645 ) ;
#95 =( NAMED_UNIT ( * ) PLANE_ANGLE_UNIT ( ) SI_UNIT ( $, .RADIAN. ) );
#96 = VERTEX_POINT ( 'NONE', #25 ) ;
#97 = CIRCLE ( 'NONE', #193, 9.099999999999999645 ) ;
#98 = ORIENTED_EDGE ( 'NONE', *, *, #35, .F. ) ;
#99 = CYLINDRICAL_SURFACE ( 'NONE', #214, 35.25000000000000000 ) ;
#100 = ORIENTED_EDGE ( 'NONE', *, *, #194, .F. ) ;
#101 = CIRCLE ( 'NONE', #13, 35.25000000000000000 ) ;
#102 = ORIENTED_EDGE ( 'NONE', *, *, #175, .T. ) ;
#103 = ORIENTED_EDGE ( 'NONE', *, *, #104, .F. ) ;
#104 = EDGE_CURVE ( 'NONE', #145, #182, #5, .T. ) ;
#105 = CARTESIAN_POINT ( 'NONE',  ( 0.0000000000000000000, 0.0000000000000000000, -1.000000000000000000 ) ) ;
#106 =( NAMED_UNIT ( * ) SI_UNIT ( $, .STERADIAN. ) SOLID_ANGLE_UNIT ( ) );
#107 = DIRECTION ( 'NONE',  ( 1.000000000000000000, 0.0000000000000000000, -0.0000000000000000000 ) ) ;
#108 = EDGE_CURVE ( 'NONE', #110, #127, #113, .T. ) ;
#109 = DIRECTION ( 'NONE',  ( -1.000000000000000000, 0.0000000000000000000, 0.0000000000000000000 ) ) ;
#110 = VERTEX_POINT ( 'NONE', #79 ) ;
#111 = AXIS2_PLACEMENT_3D ( 'NONE', #40, #28, #107 ) ;
#112 = PRESENTATION_LAYER_ASSIGNMENT (  '', '', ( #210 ) ) ;
#113 = LINE ( 'NONE', #165, #178 ) ;
#114 = PRESENTATION_LAYER_ASSIGNMENT (  '', '', ( #126 ) ) ;
#115 = FACE_OUTER_BOUND ( 'NONE', #203, .T. ) ;
#116 = FACE_BOUND ( 'NONE', #37, .T. ) ;
#117 = ORIENTED_EDGE ( 'NONE', *, *, #32, .F. ) ;
#118 = AXIS2_PLACEMENT_3D ( 'NONE', #195, #11, #26 ) ;
#119 = DIRECTION ( 'NONE',  ( -1.000000000000000000, 0.0000000000000000000, 0.0000000000000000000 ) ) ;
#120 = EDGE_CURVE ( 'NONE', #96, #182, #196, .T. ) ;
#121 = AXIS2_PLACEMENT_3D ( 'NONE', #155, #124, #75 ) ;
#122 = ADVANCED_FACE ( 'NONE', ( #205, #116 ), #188, .F. ) ;
#123 =( GEOMETRIC_REPRESENTATION_CONTEXT ( 3 ) GLOBAL_UNCERTAINTY_ASSIGNED_CONTEXT ( ( #3 ) ) GLOBAL_UNIT_ASSIGNED_CONTEXT ( ( #141, #179, #106 ) ) REPRESENTATION_CONTEXT ( 'NONE', 'WORKASPACE' ) );
#124 = DIRECTION ( 'NONE',  ( -0.0000000000000000000, -0.0000000000000000000, -1.000000000000000000 ) ) ;
#125 = SURFACE_STYLE_FILL_AREA ( #34 ) ;
#126 = STYLED_ITEM ( 'NONE', ( #157 ), #144 ) ;
#127 = VERTEX_POINT ( 'NONE', #176 ) ;
#128 = ORIENTED_EDGE ( 'NONE', *, *, #104, .T. ) ;
#129 = EDGE_LOOP ( 'NONE', ( #46, #133, #128, #91 ) ) ;
#130 = ORIENTED_EDGE ( 'NONE', *, *, #35, .T. ) ;
#131 = CARTESIAN_POINT ( 'NONE',  ( 0.0000000000000000000, 0.0000000000000000000, -1.000000000000000000 ) ) ;
#132 = DIRECTION ( 'NONE',  ( 1.000000000000000000, 0.0000000000000000000, 0.0000000000000000000 ) ) ;
#133 = ORIENTED_EDGE ( 'NONE', *, *, #39, .T. ) ;
#134 = FACE_OUTER_BOUND ( 'NONE', #82, .T. ) ;
#135 = PRODUCT_DEFINITION_FORMATION_WITH_SPECIFIED_SOURCE ( 'ANY', '', #197, .NOT_KNOWN. ) ;
#136 = VERTEX_POINT ( 'NONE', #44 ) ;
#137 = CARTESIAN_POINT ( 'NONE',  ( 0.0000000000000000000, 0.0000000000000000000, -1.000000000000000000 ) ) ;
#138 =( NAMED_UNIT ( * ) PLANE_ANGLE_UNIT ( ) SI_UNIT ( $, .RADIAN. ) );
#139 =( NAMED_UNIT ( * ) SI_UNIT ( $, .STERADIAN. ) SOLID_ANGLE_UNIT ( ) );
#140 = APPLICATION_CONTEXT ( 'automotive_design' ) ;
#141 =( LENGTH_UNIT ( ) NAMED_UNIT ( * ) SI_UNIT ( .MILLI., .METRE. ) );
#142 = EDGE_CURVE ( 'NONE', #182, #96, #97, .T. ) ;
#143 = VERTEX_POINT ( 'NONE', #56 ) ;
#144 = MANIFOLD_SOLID_BREP ( 'Boss-Extrude1', #85 ) ;
#145 = VERTEX_POINT ( 'NONE', #27 ) ;
#146 = EDGE_CURVE ( 'NONE', #110, #67, #73, .T. ) ;
#147 = SHAPE_DEFINITION_REPRESENTATION ( #158, #199 ) ;
#148 = EDGE_LOOP ( 'NONE', ( #78, #100 ) ) ;
#149 = LINE ( 'NONE', #38, #163 ) ;
#150 =( GEOMETRIC_REPRESENTATION_CONTEXT ( 3 ) GLOBAL_UNCERTAINTY_ASSIGNED_CONTEXT ( ( #80 ) ) GLOBAL_UNIT_ASSIGNED_CONTEXT ( ( #213, #95, #202 ) ) REPRESENTATION_CONTEXT ( 'NONE', 'WORKASPACE' ) );
#151 = ORIENTED_EDGE ( 'NONE', *, *, #142, .F. ) ;
#152 = ADVANCED_FACE ( 'NONE', ( #89 ), #72, .F. ) ;
#153 = DIRECTION ( 'NONE',  ( 1.000000000000000000, 0.0000000000000000000, 0.0000000000000000000 ) ) ;
#154 = DIRECTION ( 'NONE',  ( -0.0000000000000000000, -0.0000000000000000000, -1.000000000000000000 ) ) ;
#155 = CARTESIAN_POINT ( 'NONE',  ( 0.0000000000000000000, 0.0000000000000000000, 1.000000000000000000 ) ) ;
#156 = AXIS2_PLACEMENT_3D ( 'NONE', #51, #54, #8 ) ;
#157 = PRESENTATION_STYLE_ASSIGNMENT (( #86 ) ) ;
#158 = PRODUCT_DEFINITION_SHAPE ( 'NONE', 'NONE',  #211 ) ;
#159 = AXIS2_PLACEMENT_3D ( 'NONE', #7, #68, #164 ) ;
#160 = EDGE_CURVE ( 'NONE', #145, #136, #16, .T. ) ;
#161 = APPLICATION_PROTOCOL_DEFINITION ( 'draft international standard', 'automotive_design', 1998, #167 ) ;
#162 = CARTESIAN_POINT ( 'NONE',  ( 0.0000000000000000000, 0.0000000000000000000, 0.0000000000000000000 ) ) ;
#163 = VECTOR ( 'NONE', #24, 1000.000000000000000 ) ;
#164 = DIRECTION ( 'NONE',  ( 1.000000000000000000, 0.0000000000000000000, 0.0000000000000000000 ) ) ;
#165 = CARTESIAN_POINT ( 'NONE',  ( 35.25000000000000000, 4.316879966994420283E-15, 1.000000000000000000 ) ) ;
#166 = EDGE_LOOP ( 'NONE', ( #61, #187 ) ) ;
#167 = APPLICATION_CONTEXT ( 'automotive_design' ) ;
#168 = AXIS2_PLACEMENT_3D ( 'NONE', #212, #43, #109 ) ;
#169 = ADVANCED_FACE ( 'NONE', ( #174 ), #71, .T. ) ;
#170 = DIRECTION ( 'NONE',  ( -0.0000000000000000000, -0.0000000000000000000, -1.000000000000000000 ) ) ;
#171 = CARTESIAN_POINT ( 'NONE',  ( 0.0000000000000000000, 0.0000000000000000000, 1.000000000000000000 ) ) ;
#172 = SURFACE_STYLE_FILL_AREA ( #42 ) ;
#173 = MECHANICAL_DESIGN_GEOMETRIC_PRESENTATION_REPRESENTATION (  '', ( #126 ), #93 ) ;
#174 = FACE_OUTER_BOUND ( 'NONE', #198, .T. ) ;
#175 = EDGE_CURVE ( 'NONE', #143, #127, #49, .T. ) ;
#176 = CARTESIAN_POINT ( 'NONE',  ( 35.25000000000000000, 4.316879966994420283E-15, -1.000000000000000000 ) ) ;
#177 = DIRECTION ( 'NONE',  ( 1.000000000000000000, 0.0000000000000000000, 0.0000000000000000000 ) ) ;
#178 = VECTOR ( 'NONE', #186, 1000.000000000000000 ) ;
#179 =( NAMED_UNIT ( * ) PLANE_ANGLE_UNIT ( ) SI_UNIT ( $, .RADIAN. ) );
#180 = SURFACE_SIDE_STYLE ('',( #125 ) ) ;
#181 = VECTOR ( 'NONE', #154, 1000.000000000000000 ) ;
#182 = VERTEX_POINT ( 'NONE', #29 ) ;
#183 = COLOUR_RGB ( '',0.2509803921568627416, 0.2509803921568627416, 0.2509803921568627416 ) ;
#184 = FILL_AREA_STYLE_COLOUR ( '', #183 ) ;
#185 = PRESENTATION_STYLE_ASSIGNMENT (( #2 ) ) ;
#186 = DIRECTION ( 'NONE',  ( -0.0000000000000000000, -0.0000000000000000000, -1.000000000000000000 ) ) ;
#187 = ORIENTED_EDGE ( 'NONE', *, *, #39, .F. ) ;
#188 = PLANE ( 'NONE',  #111 ) ;
#189 = ORIENTED_EDGE ( 'NONE', *, *, #160, .T. ) ;
#190 = CARTESIAN_POINT ( 'NONE',  ( -35.25000000000000000, 0.0000000000000000000, 1.000000000000000000 ) ) ;
#191 = DIRECTION ( 'NONE',  ( 1.000000000000000000, 0.0000000000000000000, 0.0000000000000000000 ) ) ;
#192 = DIRECTION ( 'NONE',  ( 0.0000000000000000000, 0.0000000000000000000, 1.000000000000000000 ) ) ;
#193 = AXIS2_PLACEMENT_3D ( 'NONE', #105, #31, #191 ) ;
#194 = EDGE_CURVE ( 'NONE', #127, #143, #101, .T. ) ;
#195 = CARTESIAN_POINT ( 'NONE',  ( 0.0000000000000000000, 0.0000000000000000000, 1.000000000000000000 ) ) ;
#196 = CIRCLE ( 'NONE', #64, 9.099999999999999645 ) ;
#197 = PRODUCT ( 'C2DCC654-A849-42B3-89CD-82C4857670D8', 'C2DCC654-A849-42B3-89CD-82C4857670D8', '', ( #36 ) ) ;
#198 = EDGE_LOOP ( 'NONE', ( #50, #98, #200, #102 ) ) ;
#199 = ADVANCED_BREP_SHAPE_REPRESENTATION ( 'C2DCC654-A849-42B3-89CD-82C4857670D8', ( #144, #59 ), #123 ) ;
#200 = ORIENTED_EDGE ( 'NONE', *, *, #32, .T. ) ;
#201 = AXIS2_PLACEMENT_3D ( 'NONE', #137, #55, #177 ) ;
#202 =( NAMED_UNIT ( * ) SI_UNIT ( $, .STERADIAN. ) SOLID_ANGLE_UNIT ( ) );
#203 = EDGE_LOOP ( 'NONE', ( #76, #62, #6, #117 ) ) ;
#204 = CARTESIAN_POINT ( 'NONE',  ( 0.0000000000000000000, 0.0000000000000000000, 1.000000000000000000 ) ) ;
#205 = FACE_OUTER_BOUND ( 'NONE', #148, .T. ) ;
#206 = ORIENTED_EDGE ( 'NONE', *, *, #142, .T. ) ;
#207 = DIRECTION ( 'NONE',  ( -0.0000000000000000000, -0.0000000000000000000, -1.000000000000000000 ) ) ;
#208 = DIRECTION ( 'NONE',  ( -0.0000000000000000000, -0.0000000000000000000, -1.000000000000000000 ) ) ;
#209 = PRODUCT_RELATED_PRODUCT_CATEGORY ( 'part', '', ( #197 ) ) ;
#210 = STYLED_ITEM ( 'NONE', ( #185 ), #199 ) ;
#211 = PRODUCT_DEFINITION ( 'UNKNOWN', '', #135, #48 ) ;
#212 = CARTESIAN_POINT ( 'NONE',  ( 0.0000000000000000000, 0.0000000000000000000, 1.000000000000000000 ) ) ;
#213 =( LENGTH_UNIT ( ) NAMED_UNIT ( * ) SI_UNIT ( .MILLI., .METRE. ) );
#214 = AXIS2_PLACEMENT_3D ( 'NONE', #171, #207, #119 ) ;
ENDSEC;
END-ISO-10303-21;
