ISO-10303-21;
HEADER;
FILE_DESCRIPTION (( 'STEP AP214' ),
    '1' );
FILE_NAME ('38943EB1-ACDE-4217-8F4B-F3483EA00B2A.STEP',
    '2023-08-02T06:01:07',
    ( '' ),
    ( '' ),
    'SwSTEP 2.0',
    'SolidWorks 2022',
    '' );
FILE_SCHEMA (( 'AUTOMOTIVE_DESIGN' ));
ENDSEC;

DATA;
#1 =( NAMED_UNIT ( * ) SI_UNIT ( $, .STERADIAN. ) SOLID_ANGLE_UNIT ( ) );
#2 = APPLICATION_PROTOCOL_DEFINITION ( 'draft international standard', 'automotive_design', 1998, #165 ) ;
#3 = VERTEX_POINT ( 'NONE', #132 ) ;
#4 = ORIENTED_EDGE ( 'NONE', *, *, #145, .F. ) ;
#5 = DIRECTION ( 'NONE',  ( -0.0000000000000000000, -0.0000000000000000000, -1.000000000000000000 ) ) ;
#6 = EDGE_CURVE ( 'NONE', #85, #22, #127, .T. ) ;
#7 = MECHANICAL_DESIGN_GEOMETRIC_PRESENTATION_REPRESENTATION (  '', ( #153 ), #59 ) ;
#8 = FACE_BOUND ( 'NONE', #202, .T. ) ;
#9 = DIRECTION ( 'NONE',  ( 1.000000000000000000, 0.0000000000000000000, 0.0000000000000000000 ) ) ;
#10 = EDGE_LOOP ( 'NONE', ( #169, #115 ) ) ;
#11 = AXIS2_PLACEMENT_3D ( 'NONE', #187, #168, #122 ) ;
#12 = SURFACE_STYLE_USAGE ( .BOTH. , #37 ) ;
#13 = CARTESIAN_POINT ( 'NONE',  ( 0.0000000000000000000, 0.0000000000000000000, -1.000000000000000000 ) ) ;
#14 = DIRECTION ( 'NONE',  ( 0.0000000000000000000, 0.0000000000000000000, 1.000000000000000000 ) ) ;
#15 = CARTESIAN_POINT ( 'NONE',  ( 7.599999999999999645, 9.307315673519885459E-16, 1.000000000000000000 ) ) ;
#16 = DIRECTION ( 'NONE',  ( 0.0000000000000000000, 0.0000000000000000000, 1.000000000000000000 ) ) ;
#17 = EDGE_CURVE ( 'NONE', #146, #87, #208, .T. ) ;
#18 =( NAMED_UNIT ( * ) PLANE_ANGLE_UNIT ( ) SI_UNIT ( $, .RADIAN. ) );
#19 = AXIS2_PLACEMENT_3D ( 'NONE', #60, #14, #207 ) ;
#20 = SURFACE_STYLE_FILL_AREA ( #66 ) ;
#21 = SHAPE_DEFINITION_REPRESENTATION ( #112, #47 ) ;
#22 = VERTEX_POINT ( 'NONE', #184 ) ;
#23 = ORIENTED_EDGE ( 'NONE', *, *, #83, .T. ) ;
#24 = MECHANICAL_DESIGN_GEOMETRIC_PRESENTATION_REPRESENTATION (  '', ( #209 ), #140 ) ;
#25 = CARTESIAN_POINT ( 'NONE',  ( 0.0000000000000000000, 0.0000000000000000000, -1.000000000000000000 ) ) ;
#26 = CYLINDRICAL_SURFACE ( 'NONE', #41, 7.599999999999999645 ) ;
#27 = AXIS2_PLACEMENT_3D ( 'NONE', #79, #139, #158 ) ;
#28 = ORIENTED_EDGE ( 'NONE', *, *, #124, .F. ) ;
#29 = ORIENTED_EDGE ( 'NONE', *, *, #33, .T. ) ;
#30 = AXIS2_PLACEMENT_3D ( 'NONE', #125, #50, #157 ) ;
#31 = PRESENTATION_LAYER_ASSIGNMENT (  '', '', ( #209 ) ) ;
#32 = PLANE ( 'NONE',  #39 ) ;
#33 = EDGE_CURVE ( 'NONE', #55, #3, #130, .T. ) ;
#34 = LINE ( 'NONE', #210, #183 ) ;
#35 = UNCERTAINTY_MEASURE_WITH_UNIT (LENGTH_MEASURE( 1.000000000000000082E-05 ), #63, 'distance_accuracy_value', 'NONE');
#36 = DIRECTION ( 'NONE',  ( 1.000000000000000000, 0.0000000000000000000, 0.0000000000000000000 ) ) ;
#37 = SURFACE_SIDE_STYLE ('',( #138 ) ) ;
#38 = VECTOR ( 'NONE', #195, 1000.000000000000000 ) ;
#39 = AXIS2_PLACEMENT_3D ( 'NONE', #155, #197, #128 ) ;
#40 = VERTEX_POINT ( 'NONE', #44 ) ;
#41 = AXIS2_PLACEMENT_3D ( 'NONE', #149, #45, #70 ) ;
#42 = ADVANCED_FACE ( 'NONE', ( #107 ), #206, .T. ) ;
#43 = EDGE_LOOP ( 'NONE', ( #102, #142, #53, #119 ) ) ;
#44 = CARTESIAN_POINT ( 'NONE',  ( 7.599999999999999645, 9.307315673519885459E-16, -1.000000000000000000 ) ) ;
#45 = DIRECTION ( 'NONE',  ( -0.0000000000000000000, -0.0000000000000000000, -1.000000000000000000 ) ) ;
#46 = FACE_OUTER_BOUND ( 'NONE', #97, .T. ) ;
#47 = ADVANCED_BREP_SHAPE_REPRESENTATION ( '38943EB1-ACDE-4217-8F4B-F3483EA00B2A', ( #170, #167 ), #193 ) ;
#48 = FILL_AREA_STYLE ('',( #78 ) ) ;
#49 = PRODUCT ( '38943EB1-ACDE-4217-8F4B-F3483EA00B2A', '38943EB1-ACDE-4217-8F4B-F3483EA00B2A', '', ( #64 ) ) ;
#50 = DIRECTION ( 'NONE',  ( 0.0000000000000000000, 0.0000000000000000000, 1.000000000000000000 ) ) ;
#51 = LINE ( 'NONE', #15, #38 ) ;
#52 = PRESENTATION_STYLE_ASSIGNMENT (( #201 ) ) ;
#53 = ORIENTED_EDGE ( 'NONE', *, *, #118, .F. ) ;
#54 = ADVANCED_FACE ( 'NONE', ( #136 ), #58, .T. ) ;
#55 = VERTEX_POINT ( 'NONE', #105 ) ;
#56 = DIRECTION ( 'NONE',  ( -1.000000000000000000, 0.0000000000000000000, 0.0000000000000000000 ) ) ;
#57 = DIRECTION ( 'NONE',  ( 0.0000000000000000000, 0.0000000000000000000, 1.000000000000000000 ) ) ;
#58 = CYLINDRICAL_SURFACE ( 'NONE', #171, 35.25000000000000000 ) ;
#59 =( GEOMETRIC_REPRESENTATION_CONTEXT ( 3 ) GLOBAL_UNCERTAINTY_ASSIGNED_CONTEXT ( ( #71 ) ) GLOBAL_UNIT_ASSIGNED_CONTEXT ( ( #194, #154, #175 ) ) REPRESENTATION_CONTEXT ( 'NONE', 'WORKASPACE' ) );
#60 = CARTESIAN_POINT ( 'NONE',  ( 0.0000000000000000000, 0.0000000000000000000, -1.000000000000000000 ) ) ;
#61 = CARTESIAN_POINT ( 'NONE',  ( -35.25000000000000000, 0.0000000000000000000, 1.000000000000000000 ) ) ;
#62 = CARTESIAN_POINT ( 'NONE',  ( 0.0000000000000000000, 0.0000000000000000000, 1.000000000000000000 ) ) ;
#63 =( LENGTH_UNIT ( ) NAMED_UNIT ( * ) SI_UNIT ( .MILLI., .METRE. ) );
#64 = PRODUCT_CONTEXT ( 'NONE', #174, 'mechanical' ) ;
#65 = EDGE_CURVE ( 'NONE', #22, #85, #67, .T. ) ;
#66 = FILL_AREA_STYLE ('',( #114 ) ) ;
#67 = CIRCLE ( 'NONE', #11, 7.599999999999999645 ) ;
#68 = ORIENTED_EDGE ( 'NONE', *, *, #33, .F. ) ;
#69 = CARTESIAN_POINT ( 'NONE',  ( 0.0000000000000000000, 0.0000000000000000000, 1.000000000000000000 ) ) ;
#70 = DIRECTION ( 'NONE',  ( -1.000000000000000000, 0.0000000000000000000, 0.0000000000000000000 ) ) ;
#71 = UNCERTAINTY_MEASURE_WITH_UNIT (LENGTH_MEASURE( 1.000000000000000082E-05 ), #194, 'distance_accuracy_value', 'NONE');
#72 = DIRECTION ( 'NONE',  ( -1.000000000000000000, 0.0000000000000000000, 0.0000000000000000000 ) ) ;
#73 = ORIENTED_EDGE ( 'NONE', *, *, #6, .F. ) ;
#74 = COLOUR_RGB ( '',0.2509803921568627416, 0.2509803921568627416, 0.2509803921568627416 ) ;
#75 = PRODUCT_DEFINITION_FORMATION_WITH_SPECIFIED_SOURCE ( 'ANY', '', #49, .NOT_KNOWN. ) ;
#76 = UNCERTAINTY_MEASURE_WITH_UNIT (LENGTH_MEASURE( 1.000000000000000082E-05 ), #212, 'distance_accuracy_value', 'NONE');
#77 = ADVANCED_FACE ( 'NONE', ( #166 ), #26, .F. ) ;
#78 = FILL_AREA_STYLE_COLOUR ( '', #74 ) ;
#79 = CARTESIAN_POINT ( 'NONE',  ( 0.0000000000000000000, 0.0000000000000000000, 1.000000000000000000 ) ) ;
#80 = DIRECTION ( 'NONE',  ( 1.000000000000000000, 0.0000000000000000000, 0.0000000000000000000 ) ) ;
#81 = PRESENTATION_STYLE_ASSIGNMENT (( #12 ) ) ;
#82 = ADVANCED_FACE ( 'NONE', ( #46, #8 ), #135, .F. ) ;
#83 = EDGE_CURVE ( 'NONE', #146, #55, #186, .T. ) ;
#84 = SURFACE_SIDE_STYLE ('',( #20 ) ) ;
#85 = VERTEX_POINT ( 'NONE', #177 ) ;
#86 = DIRECTION ( 'NONE',  ( 0.0000000000000000000, 0.0000000000000000000, 1.000000000000000000 ) ) ;
#87 = VERTEX_POINT ( 'NONE', #61 ) ;
#88 = AXIS2_PLACEMENT_3D ( 'NONE', #151, #164, #204 ) ;
#89 = CARTESIAN_POINT ( 'NONE',  ( 0.0000000000000000000, 0.0000000000000000000, 1.000000000000000000 ) ) ;
#90 = CIRCLE ( 'NONE', #162, 7.599999999999999645 ) ;
#91 = PRODUCT_RELATED_PRODUCT_CATEGORY ( 'part', '', ( #49 ) ) ;
#92 = EDGE_LOOP ( 'NONE', ( #100, #23, #29, #147 ) ) ;
#93 = ORIENTED_EDGE ( 'NONE', *, *, #126, .F. ) ;
#94 = CARTESIAN_POINT ( 'NONE',  ( -35.25000000000000000, 0.0000000000000000000, 1.000000000000000000 ) ) ;
#95 = DIRECTION ( 'NONE',  ( -0.0000000000000000000, -0.0000000000000000000, -1.000000000000000000 ) ) ;
#96 = DIRECTION ( 'NONE',  ( -0.0000000000000000000, -0.0000000000000000000, -1.000000000000000000 ) ) ;
#97 = EDGE_LOOP ( 'NONE', ( #131, #68 ) ) ;
#98 = AXIS2_PLACEMENT_3D ( 'NONE', #62, #16, #36 ) ;
#99 = DIRECTION ( 'NONE',  ( 0.0000000000000000000, 0.0000000000000000000, 1.000000000000000000 ) ) ;
#100 = ORIENTED_EDGE ( 'NONE', *, *, #17, .F. ) ;
#101 = ORIENTED_EDGE ( 'NONE', *, *, #180, .T. ) ;
#102 = ORIENTED_EDGE ( 'NONE', *, *, #6, .T. ) ;
#103 = AXIS2_PLACEMENT_3D ( 'NONE', #148, #5, #72 ) ;
#104 = DIRECTION ( 'NONE',  ( 1.000000000000000000, 0.0000000000000000000, 0.0000000000000000000 ) ) ;
#105 = CARTESIAN_POINT ( 'NONE',  ( 35.25000000000000000, 4.316879966994420283E-15, -1.000000000000000000 ) ) ;
#106 = CARTESIAN_POINT ( 'NONE',  ( 35.25000000000000000, 4.316879966994420283E-15, 1.000000000000000000 ) ) ;
#107 = FACE_OUTER_BOUND ( 'NONE', #199, .T. ) ;
#108 = CIRCLE ( 'NONE', #19, 7.599999999999999645 ) ;
#109 = LINE ( 'NONE', #94, #144 ) ;
#110 = FACE_BOUND ( 'NONE', #117, .T. ) ;
#111 = CARTESIAN_POINT ( 'NONE',  ( -7.599999999999999645, 0.0000000000000000000, -1.000000000000000000 ) ) ;
#112 = PRODUCT_DEFINITION_SHAPE ( 'NONE', 'NONE',  #213 ) ;
#113 = EDGE_CURVE ( 'NONE', #3, #55, #116, .T. ) ;
#114 = FILL_AREA_STYLE_COLOUR ( '', #181 ) ;
#115 = ORIENTED_EDGE ( 'NONE', *, *, #17, .T. ) ;
#116 = CIRCLE ( 'NONE', #30, 35.25000000000000000 ) ;
#117 = EDGE_LOOP ( 'NONE', ( #73, #163 ) ) ;
#118 = EDGE_CURVE ( 'NONE', #129, #40, #108, .T. ) ;
#119 = ORIENTED_EDGE ( 'NONE', *, *, #180, .F. ) ;
#120 = DIRECTION ( 'NONE',  ( 1.000000000000000000, 0.0000000000000000000, -0.0000000000000000000 ) ) ;
#121 = CLOSED_SHELL ( 'NONE', ( #190, #54, #189, #82, #42, #77 ) ) ;
#122 = DIRECTION ( 'NONE',  ( 1.000000000000000000, 0.0000000000000000000, 0.0000000000000000000 ) ) ;
#123 = FACE_OUTER_BOUND ( 'NONE', #43, .T. ) ;
#124 = EDGE_CURVE ( 'NONE', #87, #146, #133, .T. ) ;
#125 = CARTESIAN_POINT ( 'NONE',  ( 0.0000000000000000000, 0.0000000000000000000, -1.000000000000000000 ) ) ;
#126 = EDGE_CURVE ( 'NONE', #22, #40, #51, .T. ) ;
#127 = CIRCLE ( 'NONE', #200, 7.599999999999999645 ) ;
#128 = DIRECTION ( 'NONE',  ( 1.000000000000000000, 0.0000000000000000000, -0.0000000000000000000 ) ) ;
#129 = VERTEX_POINT ( 'NONE', #111 ) ;
#130 = CIRCLE ( 'NONE', #192, 35.25000000000000000 ) ;
#131 = ORIENTED_EDGE ( 'NONE', *, *, #113, .F. ) ;
#132 = CARTESIAN_POINT ( 'NONE',  ( -35.25000000000000000, 0.0000000000000000000, -1.000000000000000000 ) ) ;
#133 = CIRCLE ( 'NONE', #98, 35.25000000000000000 ) ;
#134 = DIRECTION ( 'NONE',  ( -0.0000000000000000000, -0.0000000000000000000, -1.000000000000000000 ) ) ;
#135 = PLANE ( 'NONE',  #182 ) ;
#136 = FACE_OUTER_BOUND ( 'NONE', #92, .T. ) ;
#137 = PRODUCT_DEFINITION_CONTEXT ( 'detailed design', #165, 'design' ) ;
#138 = SURFACE_STYLE_FILL_AREA ( #48 ) ;
#139 = DIRECTION ( 'NONE',  ( -0.0000000000000000000, -0.0000000000000000000, -1.000000000000000000 ) ) ;
#140 =( GEOMETRIC_REPRESENTATION_CONTEXT ( 3 ) GLOBAL_UNCERTAINTY_ASSIGNED_CONTEXT ( ( #35 ) ) GLOBAL_UNIT_ASSIGNED_CONTEXT ( ( #63, #18, #1 ) ) REPRESENTATION_CONTEXT ( 'NONE', 'WORKASPACE' ) );
#141 = FACE_OUTER_BOUND ( 'NONE', #10, .T. ) ;
#142 = ORIENTED_EDGE ( 'NONE', *, *, #126, .T. ) ;
#143 = PRESENTATION_LAYER_ASSIGNMENT (  '', '', ( #153 ) ) ;
#144 = VECTOR ( 'NONE', #172, 1000.000000000000000 ) ;
#145 = EDGE_CURVE ( 'NONE', #40, #129, #90, .T. ) ;
#146 = VERTEX_POINT ( 'NONE', #176 ) ;
#147 = ORIENTED_EDGE ( 'NONE', *, *, #179, .F. ) ;
#148 = CARTESIAN_POINT ( 'NONE',  ( 0.0000000000000000000, 0.0000000000000000000, 1.000000000000000000 ) ) ;
#149 = CARTESIAN_POINT ( 'NONE',  ( 0.0000000000000000000, 0.0000000000000000000, 1.000000000000000000 ) ) ;
#150 = EDGE_LOOP ( 'NONE', ( #93, #160, #101, #4 ) ) ;
#151 = CARTESIAN_POINT ( 'NONE',  ( 0.0000000000000000000, 0.0000000000000000000, 1.000000000000000000 ) ) ;
#152 = VECTOR ( 'NONE', #96, 1000.000000000000000 ) ;
#153 = STYLED_ITEM ( 'NONE', ( #81 ), #170 ) ;
#154 =( NAMED_UNIT ( * ) PLANE_ANGLE_UNIT ( ) SI_UNIT ( $, .RADIAN. ) );
#155 = CARTESIAN_POINT ( 'NONE',  ( 0.0000000000000000000, 0.0000000000000000000, 1.000000000000000000 ) ) ;
#156 =( NAMED_UNIT ( * ) PLANE_ANGLE_UNIT ( ) SI_UNIT ( $, .RADIAN. ) );
#157 = DIRECTION ( 'NONE',  ( 1.000000000000000000, 0.0000000000000000000, 0.0000000000000000000 ) ) ;
#158 = DIRECTION ( 'NONE',  ( -1.000000000000000000, 0.0000000000000000000, 0.0000000000000000000 ) ) ;
#159 = ORIENTED_EDGE ( 'NONE', *, *, #113, .T. ) ;
#160 = ORIENTED_EDGE ( 'NONE', *, *, #65, .T. ) ;
#161 = ORIENTED_EDGE ( 'NONE', *, *, #83, .F. ) ;
#162 = AXIS2_PLACEMENT_3D ( 'NONE', #13, #191, #80 ) ;
#163 = ORIENTED_EDGE ( 'NONE', *, *, #65, .F. ) ;
#164 = DIRECTION ( 'NONE',  ( 0.0000000000000000000, 0.0000000000000000000, 1.000000000000000000 ) ) ;
#165 = APPLICATION_CONTEXT ( 'automotive_design' ) ;
#166 = FACE_OUTER_BOUND ( 'NONE', #150, .T. ) ;
#167 = AXIS2_PLACEMENT_3D ( 'NONE', #178, #99, #214 ) ;
#168 = DIRECTION ( 'NONE',  ( 0.0000000000000000000, 0.0000000000000000000, 1.000000000000000000 ) ) ;
#169 = ORIENTED_EDGE ( 'NONE', *, *, #124, .T. ) ;
#170 = MANIFOLD_SOLID_BREP ( 'Boss-Extrude1', #121 ) ;
#171 = AXIS2_PLACEMENT_3D ( 'NONE', #69, #134, #56 ) ;
#172 = DIRECTION ( 'NONE',  ( -0.0000000000000000000, -0.0000000000000000000, -1.000000000000000000 ) ) ;
#173 =( NAMED_UNIT ( * ) SI_UNIT ( $, .STERADIAN. ) SOLID_ANGLE_UNIT ( ) );
#174 = APPLICATION_CONTEXT ( 'automotive_design' ) ;
#175 =( NAMED_UNIT ( * ) SI_UNIT ( $, .STERADIAN. ) SOLID_ANGLE_UNIT ( ) );
#176 = CARTESIAN_POINT ( 'NONE',  ( 35.25000000000000000, 4.316879966994420283E-15, 1.000000000000000000 ) ) ;
#177 = CARTESIAN_POINT ( 'NONE',  ( -7.599999999999999645, 0.0000000000000000000, 1.000000000000000000 ) ) ;
#178 = CARTESIAN_POINT ( 'NONE',  ( 0.0000000000000000000, 0.0000000000000000000, 0.0000000000000000000 ) ) ;
#179 = EDGE_CURVE ( 'NONE', #87, #3, #109, .T. ) ;
#180 = EDGE_CURVE ( 'NONE', #85, #129, #34, .T. ) ;
#181 = COLOUR_RGB ( '',0.2509803921568627416, 0.2509803921568627416, 0.2509803921568627416 ) ;
#182 = AXIS2_PLACEMENT_3D ( 'NONE', #205, #57, #120 ) ;
#183 = VECTOR ( 'NONE', #95, 1000.000000000000000 ) ;
#184 = CARTESIAN_POINT ( 'NONE',  ( 7.599999999999999645, 9.307315673519885459E-16, 1.000000000000000000 ) ) ;
#185 = ORIENTED_EDGE ( 'NONE', *, *, #118, .T. ) ;
#186 = LINE ( 'NONE', #106, #152 ) ;
#187 = CARTESIAN_POINT ( 'NONE',  ( 0.0000000000000000000, 0.0000000000000000000, 1.000000000000000000 ) ) ;
#188 = ORIENTED_EDGE ( 'NONE', *, *, #145, .T. ) ;
#189 = ADVANCED_FACE ( 'NONE', ( #141, #110 ), #32, .T. ) ;
#190 = ADVANCED_FACE ( 'NONE', ( #123 ), #196, .F. ) ;
#191 = DIRECTION ( 'NONE',  ( 0.0000000000000000000, 0.0000000000000000000, 1.000000000000000000 ) ) ;
#192 = AXIS2_PLACEMENT_3D ( 'NONE', #25, #203, #104 ) ;
#193 =( GEOMETRIC_REPRESENTATION_CONTEXT ( 3 ) GLOBAL_UNCERTAINTY_ASSIGNED_CONTEXT ( ( #76 ) ) GLOBAL_UNIT_ASSIGNED_CONTEXT ( ( #212, #156, #173 ) ) REPRESENTATION_CONTEXT ( 'NONE', 'WORKASPACE' ) );
#194 =( LENGTH_UNIT ( ) NAMED_UNIT ( * ) SI_UNIT ( .MILLI., .METRE. ) );
#195 = DIRECTION ( 'NONE',  ( -0.0000000000000000000, -0.0000000000000000000, -1.000000000000000000 ) ) ;
#196 = CYLINDRICAL_SURFACE ( 'NONE', #27, 7.599999999999999645 ) ;
#197 = DIRECTION ( 'NONE',  ( 0.0000000000000000000, 0.0000000000000000000, 1.000000000000000000 ) ) ;
#198 = APPLICATION_PROTOCOL_DEFINITION ( 'draft international standard', 'automotive_design', 1998, #174 ) ;
#199 = EDGE_LOOP ( 'NONE', ( #161, #28, #211, #159 ) ) ;
#200 = AXIS2_PLACEMENT_3D ( 'NONE', #89, #86, #9 ) ;
#201 = SURFACE_STYLE_USAGE ( .BOTH. , #84 ) ;
#202 = EDGE_LOOP ( 'NONE', ( #185, #188 ) ) ;
#203 = DIRECTION ( 'NONE',  ( 0.0000000000000000000, 0.0000000000000000000, 1.000000000000000000 ) ) ;
#204 = DIRECTION ( 'NONE',  ( 1.000000000000000000, 0.0000000000000000000, 0.0000000000000000000 ) ) ;
#205 = CARTESIAN_POINT ( 'NONE',  ( 0.0000000000000000000, 0.0000000000000000000, -1.000000000000000000 ) ) ;
#206 = CYLINDRICAL_SURFACE ( 'NONE', #103, 35.25000000000000000 ) ;
#207 = DIRECTION ( 'NONE',  ( 1.000000000000000000, 0.0000000000000000000, 0.0000000000000000000 ) ) ;
#208 = CIRCLE ( 'NONE', #88, 35.25000000000000000 ) ;
#209 = STYLED_ITEM ( 'NONE', ( #52 ), #47 ) ;
#210 = CARTESIAN_POINT ( 'NONE',  ( -7.599999999999999645, 0.0000000000000000000, 1.000000000000000000 ) ) ;
#211 = ORIENTED_EDGE ( 'NONE', *, *, #179, .T. ) ;
#212 =( LENGTH_UNIT ( ) NAMED_UNIT ( * ) SI_UNIT ( .MILLI., .METRE. ) );
#213 = PRODUCT_DEFINITION ( 'UNKNOWN', '', #75, #137 ) ;
#214 = DIRECTION ( 'NONE',  ( 1.000000000000000000, 0.0000000000000000000, 0.0000000000000000000 ) ) ;
ENDSEC;
END-ISO-10303-21;
