ISO-10303-21;
HEADER;
FILE_DESCRIPTION (( 'STEP AP214' ),
    '1' );
FILE_NAME ('F737EF83-E756-4511-A1AD-4BDD37E4E56C.STEP',
    '2023-08-01T13:45:43',
    ( '' ),
    ( '' ),
    'SwSTEP 2.0',
    'SolidWorks 2022',
    '' );
FILE_SCHEMA (( 'AUTOMOTIVE_DESIGN' ));
ENDSEC;

DATA;
#1 = ORIENTED_EDGE ( 'NONE', *, *, #217, .F. ) ;
#2 = COLOUR_RGB ( '',0.2470588235294117752, 0.2509803921568627416, 0.2549019607843137081 ) ;
#3 = SURFACE_STYLE_FILL_AREA ( #123 ) ;
#4 = EDGE_CURVE ( 'NONE', #108, #186, #66, .T. ) ;
#5 = CARTESIAN_POINT ( 'NONE',  ( 11.50000000000000355, -4.999999999999999112, -30000.00000000000000 ) ) ;
#6 = LINE ( 'NONE', #95, #203 ) ;
#7 = CARTESIAN_POINT ( 'NONE',  ( -11.50000000000000000, 0.0000000000000000000, -30000.00000000000000 ) ) ;
#8 = FACE_OUTER_BOUND ( 'NONE', #63, .T. ) ;
#9 = EDGE_CURVE ( 'NONE', #47, #43, #155, .T. ) ;
#10 = DIRECTION ( 'NONE',  ( 1.000000000000000000, -5.782411586589351722E-16, 0.0000000000000000000 ) ) ;
#11 = VECTOR ( 'NONE', #157, 1000.000000000000000 ) ;
#12 = SURFACE_SIDE_STYLE ('',( #204 ) ) ;
#13 = MECHANICAL_DESIGN_GEOMETRIC_PRESENTATION_REPRESENTATION (  '', ( #246 ), #49 ) ;
#14 = ORIENTED_EDGE ( 'NONE', *, *, #4, .F. ) ;
#15 = ADVANCED_FACE ( 'NONE', ( #115 ), #156, .T. ) ;
#16 = CARTESIAN_POINT ( 'NONE',  ( 11.50000000000000355, -4.999999999999999112, 0.0000000000000000000 ) ) ;
#17 = CARTESIAN_POINT ( 'NONE',  ( 11.50000000000000355, 4.000000000000000000, -30000.00000000000000 ) ) ;
#18 = LINE ( 'NONE', #242, #194 ) ;
#19 = ORIENTED_EDGE ( 'NONE', *, *, #234, .T. ) ;
#20 = CARTESIAN_POINT ( 'NONE',  ( -11.50000000000000000, 0.0000000000000000000, 0.0000000000000000000 ) ) ;
#21 = SHAPE_DEFINITION_REPRESENTATION ( #114, #74 ) ;
#22 = EDGE_LOOP ( 'NONE', ( #229, #69, #170, #145 ) ) ;
#23 = DIRECTION ( 'NONE',  ( 8.673617379884042375E-16, -1.000000000000000000, -0.0000000000000000000 ) ) ;
#24 = PRODUCT_CONTEXT ( 'NONE', #151, 'mechanical' ) ;
#25 = LINE ( 'NONE', #150, #130 ) ;
#26 = PRODUCT_DEFINITION_FORMATION_WITH_SPECIFIED_SOURCE ( 'ANY', '', #29, .NOT_KNOWN. ) ;
#27 = DIRECTION ( 'NONE',  ( -1.000000000000000000, -8.673617379884042375E-16, 0.0000000000000000000 ) ) ;
#28 = FACE_OUTER_BOUND ( 'NONE', #60, .T. ) ;
#29 = PRODUCT ( 'F737EF83-E756-4511-A1AD-4BDD37E4E56C', 'F737EF83-E756-4511-A1AD-4BDD37E4E56C', '', ( #24 ) ) ;
#30 = VECTOR ( 'NONE', #235, 1000.000000000000000 ) ;
#31 = LINE ( 'NONE', #97, #86 ) ;
#32 = CARTESIAN_POINT ( 'NONE',  ( 8.500000000000000000, -4.999999999999997335, -30000.00000000000000 ) ) ;
#33 = DIRECTION ( 'NONE',  ( 0.0000000000000000000, -1.000000000000000000, 0.0000000000000000000 ) ) ;
#34 = ORIENTED_EDGE ( 'NONE', *, *, #234, .F. ) ;
#35 = EDGE_CURVE ( 'NONE', #112, #260, #87, .T. ) ;
#36 = MECHANICAL_DESIGN_GEOMETRIC_PRESENTATION_REPRESENTATION (  '', ( #159 ), #193 ) ;
#37 = CARTESIAN_POINT ( 'NONE',  ( 8.500000000000000000, 0.0000000000000000000, 0.0000000000000000000 ) ) ;
#38 = DIRECTION ( 'NONE',  ( 0.0000000000000000000, 0.0000000000000000000, -1.000000000000000000 ) ) ;
#39 =( NAMED_UNIT ( * ) SI_UNIT ( $, .STERADIAN. ) SOLID_ANGLE_UNIT ( ) );
#40 = EDGE_CURVE ( 'NONE', #223, #108, #25, .T. ) ;
#41 = ORIENTED_EDGE ( 'NONE', *, *, #9, .T. ) ;
#42 = ORIENTED_EDGE ( 'NONE', *, *, #35, .T. ) ;
#43 = VERTEX_POINT ( 'NONE', #20 ) ;
#44 = ORIENTED_EDGE ( 'NONE', *, *, #199, .T. ) ;
#45 = UNCERTAINTY_MEASURE_WITH_UNIT (LENGTH_MEASURE( 1.000000000000000082E-05 ), #89, 'distance_accuracy_value', 'NONE');
#46 = DIRECTION ( 'NONE',  ( 1.000000000000000000, 0.0000000000000000000, 0.0000000000000000000 ) ) ;
#47 = VERTEX_POINT ( 'NONE', #267 ) ;
#48 = PLANE ( 'NONE',  #124 ) ;
#49 =( GEOMETRIC_REPRESENTATION_CONTEXT ( 3 ) GLOBAL_UNCERTAINTY_ASSIGNED_CONTEXT ( ( #251 ) ) GLOBAL_UNIT_ASSIGNED_CONTEXT ( ( #252, #104, #239 ) ) REPRESENTATION_CONTEXT ( 'NONE', 'WORKASPACE' ) );
#50 = CARTESIAN_POINT ( 'NONE',  ( 0.0000000000000000000, 0.0000000000000000000, -30000.00000000000000 ) ) ;
#51 = LINE ( 'NONE', #236, #111 ) ;
#52 = EDGE_CURVE ( 'NONE', #249, #47, #248, .T. ) ;
#53 = DIRECTION ( 'NONE',  ( 8.673617379884042375E-16, -1.000000000000000000, -0.0000000000000000000 ) ) ;
#54 = PRESENTATION_STYLE_ASSIGNMENT (( #80 ) ) ;
#55 = DIRECTION ( 'NONE',  ( -5.782411586589351722E-16, -1.000000000000000000, 0.0000000000000000000 ) ) ;
#56 = PRODUCT_DEFINITION_CONTEXT ( 'detailed design', #188, 'design' ) ;
#57 = ORIENTED_EDGE ( 'NONE', *, *, #35, .F. ) ;
#58 = DIRECTION ( 'NONE',  ( 0.0000000000000000000, 0.0000000000000000000, 1.000000000000000000 ) ) ;
#59 = VECTOR ( 'NONE', #192, 1000.000000000000000 ) ;
#60 = EDGE_LOOP ( 'NONE', ( #245, #71, #84, #189 ) ) ;
#61 = DIRECTION ( 'NONE',  ( 0.0000000000000000000, -1.000000000000000000, 0.0000000000000000000 ) ) ;
#62 = CARTESIAN_POINT ( 'NONE',  ( -11.50000000000000000, 0.0000000000000000000, -30000.00000000000000 ) ) ;
#63 = EDGE_LOOP ( 'NONE', ( #41, #168, #44, #90, #268, #19 ) ) ;
#64 = EDGE_CURVE ( 'NONE', #186, #112, #51, .T. ) ;
#65 = VECTOR ( 'NONE', #53, 1000.000000000000000 ) ;
#66 = LINE ( 'NONE', #210, #261 ) ;
#67 = CARTESIAN_POINT ( 'NONE',  ( 11.50000000000000355, -4.999999999999999112, -30000.00000000000000 ) ) ;
#68 = PRODUCT_RELATED_PRODUCT_CATEGORY ( 'part', '', ( #29 ) ) ;
#69 = ORIENTED_EDGE ( 'NONE', *, *, #127, .F. ) ;
#70 = VECTOR ( 'NONE', #161, 1000.000000000000000 ) ;
#71 = ORIENTED_EDGE ( 'NONE', *, *, #52, .F. ) ;
#72 =( NAMED_UNIT ( * ) PLANE_ANGLE_UNIT ( ) SI_UNIT ( $, .RADIAN. ) );
#73 = CARTESIAN_POINT ( 'NONE',  ( -11.50000000000000000, 0.0000000000000000000, 0.0000000000000000000 ) ) ;
#74 = ADVANCED_BREP_SHAPE_REPRESENTATION ( 'F737EF83-E756-4511-A1AD-4BDD37E4E56C', ( #181, #81 ), #244 ) ;
#75 = AXIS2_PLACEMENT_3D ( 'NONE', #135, #247, #213 ) ;
#76 = DIRECTION ( 'NONE',  ( 0.0000000000000000000, 0.0000000000000000000, 1.000000000000000000 ) ) ;
#77 = CARTESIAN_POINT ( 'NONE',  ( 8.500000000000000000, -4.999999999999997335, 0.0000000000000000000 ) ) ;
#78 = EDGE_CURVE ( 'NONE', #212, #190, #142, .T. ) ;
#79 = LINE ( 'NONE', #237, #65 ) ;
#80 = SURFACE_STYLE_USAGE ( .BOTH. , #256 ) ;
#81 = AXIS2_PLACEMENT_3D ( 'NONE', #93, #118, #46 ) ;
#82 = FILL_AREA_STYLE_COLOUR ( '', #169 ) ;
#83 = LINE ( 'NONE', #37, #138 ) ;
#84 = ORIENTED_EDGE ( 'NONE', *, *, #172, .T. ) ;
#85 = EDGE_LOOP ( 'NONE', ( #153, #264, #241, #265 ) ) ;
#86 = VECTOR ( 'NONE', #176, 1000.000000000000000 ) ;
#87 = LINE ( 'NONE', #67, #59 ) ;
#88 = EDGE_LOOP ( 'NONE', ( #250, #232, #187, #152 ) ) ;
#89 =( LENGTH_UNIT ( ) NAMED_UNIT ( * ) SI_UNIT ( .MILLI., .METRE. ) );
#90 = ORIENTED_EDGE ( 'NONE', *, *, #78, .T. ) ;
#91 = EDGE_CURVE ( 'NONE', #108, #211, #198, .T. ) ;
#92 = CARTESIAN_POINT ( 'NONE',  ( -11.50000000000000000, 0.0000000000000000000, -30000.00000000000000 ) ) ;
#93 = CARTESIAN_POINT ( 'NONE',  ( 0.0000000000000000000, 0.0000000000000000000, 0.0000000000000000000 ) ) ;
#94 = ADVANCED_FACE ( 'NONE', ( #28 ), #48, .T. ) ;
#95 = CARTESIAN_POINT ( 'NONE',  ( 8.500000000000000000, -4.999999999999997335, -30000.00000000000000 ) ) ;
#96 = DIRECTION ( 'NONE',  ( 0.0000000000000000000, 0.0000000000000000000, 1.000000000000000000 ) ) ;
#97 = CARTESIAN_POINT ( 'NONE',  ( 11.50000000000000355, -4.999999999999999112, -30000.00000000000000 ) ) ;
#98 = DIRECTION ( 'NONE',  ( 0.0000000000000000000, -0.0000000000000000000, -1.000000000000000000 ) ) ;
#99 = VECTOR ( 'NONE', #96, 1000.000000000000000 ) ;
#100 = CARTESIAN_POINT ( 'NONE',  ( -11.50000000000000000, 0.0000000000000000000, 0.0000000000000000000 ) ) ;
#101 = VECTOR ( 'NONE', #144, 1000.000000000000000 ) ;
#102 = AXIS2_PLACEMENT_3D ( 'NONE', #50, #255, #139 ) ;
#103 = SURFACE_STYLE_USAGE ( .BOTH. , #12 ) ;
#104 =( NAMED_UNIT ( * ) PLANE_ANGLE_UNIT ( ) SI_UNIT ( $, .RADIAN. ) );
#105 = ORIENTED_EDGE ( 'NONE', *, *, #106, .T. ) ;
#106 = EDGE_CURVE ( 'NONE', #260, #249, #216, .T. ) ;
#107 = CARTESIAN_POINT ( 'NONE',  ( 11.50000000000000355, -4.999999999999999112, 0.0000000000000000000 ) ) ;
#108 = VERTEX_POINT ( 'NONE', #201 ) ;
#109 = ADVANCED_FACE ( 'NONE', ( #8 ), #119, .T. ) ;
#110 = DIRECTION ( 'NONE',  ( 0.0000000000000000000, -1.000000000000000000, 0.0000000000000000000 ) ) ;
#111 = VECTOR ( 'NONE', #238, 1000.000000000000000 ) ;
#112 = VERTEX_POINT ( 'NONE', #5 ) ;
#113 = ORIENTED_EDGE ( 'NONE', *, *, #172, .F. ) ;
#114 = PRODUCT_DEFINITION_SHAPE ( 'NONE', 'NONE',  #162 ) ;
#115 = FACE_OUTER_BOUND ( 'NONE', #174, .T. ) ;
#116 = PRESENTATION_LAYER_ASSIGNMENT (  '', '', ( #159 ) ) ;
#117 = ORIENTED_EDGE ( 'NONE', *, *, #40, .F. ) ;
#118 = DIRECTION ( 'NONE',  ( 0.0000000000000000000, 0.0000000000000000000, 1.000000000000000000 ) ) ;
#119 = PLANE ( 'NONE',  #184 ) ;
#120 = ADVANCED_FACE ( 'NONE', ( #197 ), #163, .T. ) ;
#121 = DIRECTION ( 'NONE',  ( 8.673617379884042375E-16, -1.000000000000000000, 0.0000000000000000000 ) ) ;
#122 = FACE_OUTER_BOUND ( 'NONE', #85, .T. ) ;
#123 = FILL_AREA_STYLE ('',( #233 ) ) ;
#124 = AXIS2_PLACEMENT_3D ( 'NONE', #92, #27, #121 ) ;
#125 = APPLICATION_PROTOCOL_DEFINITION ( 'draft international standard', 'automotive_design', 1998, #151 ) ;
#126 = AXIS2_PLACEMENT_3D ( 'NONE', #7, #33, #98 ) ;
#127 = EDGE_CURVE ( 'NONE', #186, #212, #6, .T. ) ;
#128 = CARTESIAN_POINT ( 'NONE',  ( 11.50000000000000355, 4.000000000000000000, 0.0000000000000000000 ) ) ;
#129 = PLANE ( 'NONE',  #266 ) ;
#130 = VECTOR ( 'NONE', #208, 1000.000000000000000 ) ;
#131 = ORIENTED_EDGE ( 'NONE', *, *, #64, .F. ) ;
#132 = ORIENTED_EDGE ( 'NONE', *, *, #143, .F. ) ;
#133 = ORIENTED_EDGE ( 'NONE', *, *, #182, .T. ) ;
#134 = ORIENTED_EDGE ( 'NONE', *, *, #106, .F. ) ;
#135 = CARTESIAN_POINT ( 'NONE',  ( 11.50000000000000355, 4.000000000000000000, -30000.00000000000000 ) ) ;
#136 = PRESENTATION_LAYER_ASSIGNMENT (  '', '', ( #246 ) ) ;
#137 = CARTESIAN_POINT ( 'NONE',  ( 0.0000000000000000000, 0.0000000000000000000, 0.0000000000000000000 ) ) ;
#138 = VECTOR ( 'NONE', #61, 1000.000000000000000 ) ;
#139 = DIRECTION ( 'NONE',  ( 1.000000000000000000, 0.0000000000000000000, -0.0000000000000000000 ) ) ;
#140 = DIRECTION ( 'NONE',  ( -1.000000000000000000, -1.508455196501570936E-16, 0.0000000000000000000 ) ) ;
#141 = LINE ( 'NONE', #222, #11 ) ;
#142 = LINE ( 'NONE', #77, #70 ) ;
#143 = EDGE_CURVE ( 'NONE', #112, #190, #31, .T. ) ;
#144 = DIRECTION ( 'NONE',  ( 1.000000000000000000, 0.0000000000000000000, 0.0000000000000000000 ) ) ;
#145 = ORIENTED_EDGE ( 'NONE', *, *, #143, .T. ) ;
#146 = ADVANCED_FACE ( 'NONE', ( #122 ), #218, .T. ) ;
#147 = FACE_OUTER_BOUND ( 'NONE', #22, .T. ) ;
#148 = FACE_OUTER_BOUND ( 'NONE', #228, .T. ) ;
#149 = LINE ( 'NONE', #128, #227 ) ;
#150 = CARTESIAN_POINT ( 'NONE',  ( -11.50000000000000000, 0.0000000000000000000, -30000.00000000000000 ) ) ;
#151 = APPLICATION_CONTEXT ( 'automotive_design' ) ;
#152 = ORIENTED_EDGE ( 'NONE', *, *, #127, .T. ) ;
#153 = ORIENTED_EDGE ( 'NONE', *, *, #257, .F. ) ;
#154 = VECTOR ( 'NONE', #23, 1000.000000000000000 ) ;
#155 = LINE ( 'NONE', #73, #154 ) ;
#156 = PLANE ( 'NONE',  #75 ) ;
#157 = DIRECTION ( 'NONE',  ( 0.0000000000000000000, 0.0000000000000000000, 1.000000000000000000 ) ) ;
#158 = PLANE ( 'NONE',  #102 ) ;
#159 = STYLED_ITEM ( 'NONE', ( #165 ), #74 ) ;
#160 = DIRECTION ( 'NONE',  ( 0.0000000000000000000, 0.0000000000000000000, 1.000000000000000000 ) ) ;
#161 = DIRECTION ( 'NONE',  ( 1.000000000000000000, -5.782411586589351722E-16, 0.0000000000000000000 ) ) ;
#162 = PRODUCT_DEFINITION ( 'UNKNOWN', '', #26, #56 ) ;
#163 = PLANE ( 'NONE',  #221 ) ;
#164 = FILL_AREA_STYLE ('',( #82 ) ) ;
#165 = PRESENTATION_STYLE_ASSIGNMENT (( #103 ) ) ;
#166 = CARTESIAN_POINT ( 'NONE',  ( 8.500000000000000000, -4.999999999999997335, 0.0000000000000000000 ) ) ;
#167 = ADVANCED_FACE ( 'NONE', ( #178 ), #158, .F. ) ;
#168 = ORIENTED_EDGE ( 'NONE', *, *, #257, .T. ) ;
#169 = COLOUR_RGB ( '',0.0000000000000000000, 1.000000000000000000, 0.0000000000000000000 ) ;
#170 = ORIENTED_EDGE ( 'NONE', *, *, #64, .T. ) ;
#171 = ORIENTED_EDGE ( 'NONE', *, *, #52, .T. ) ;
#172 = EDGE_CURVE ( 'NONE', #249, #223, #79, .T. ) ;
#173 = VERTEX_POINT ( 'NONE', #180 ) ;
#174 = EDGE_LOOP ( 'NONE', ( #34, #231, #105, #171 ) ) ;
#175 =( NAMED_UNIT ( * ) SI_UNIT ( $, .STERADIAN. ) SOLID_ANGLE_UNIT ( ) );
#176 = DIRECTION ( 'NONE',  ( 0.0000000000000000000, 0.0000000000000000000, 1.000000000000000000 ) ) ;
#177 = CARTESIAN_POINT ( 'NONE',  ( 8.500000000000000000, 0.0000000000000000000, -30000.00000000000000 ) ) ;
#178 = FACE_OUTER_BOUND ( 'NONE', #226, .T. ) ;
#179 = EDGE_CURVE ( 'NONE', #223, #43, #141, .T. ) ;
#180 = CARTESIAN_POINT ( 'NONE',  ( 11.50000000000000355, 4.000000000000000000, 0.0000000000000000000 ) ) ;
#181 = MANIFOLD_SOLID_BREP ( 'Boss-Extrude1', #243 ) ;
#182 = EDGE_CURVE ( 'NONE', #260, #173, #18, .T. ) ;
#183 = CARTESIAN_POINT ( 'NONE',  ( -11.50000000000000355, 3.999999999999996447, -30000.00000000000000 ) ) ;
#184 = AXIS2_PLACEMENT_3D ( 'NONE', #137, #196, #220 ) ;
#185 = CARTESIAN_POINT ( 'NONE',  ( 8.500000000000000000, 0.0000000000000000000, 0.0000000000000000000 ) ) ;
#186 = VERTEX_POINT ( 'NONE', #32 ) ;
#187 = ORIENTED_EDGE ( 'NONE', *, *, #4, .T. ) ;
#188 = APPLICATION_CONTEXT ( 'automotive_design' ) ;
#189 = ORIENTED_EDGE ( 'NONE', *, *, #179, .T. ) ;
#190 = VERTEX_POINT ( 'NONE', #107 ) ;
#191 = APPLICATION_PROTOCOL_DEFINITION ( 'draft international standard', 'automotive_design', 1998, #188 ) ;
#192 = DIRECTION ( 'NONE',  ( 0.0000000000000000000, 1.000000000000000000, 0.0000000000000000000 ) ) ;
#193 =( GEOMETRIC_REPRESENTATION_CONTEXT ( 3 ) GLOBAL_UNCERTAINTY_ASSIGNED_CONTEXT ( ( #45 ) ) GLOBAL_UNIT_ASSIGNED_CONTEXT ( ( #89, #72, #175 ) ) REPRESENTATION_CONTEXT ( 'NONE', 'WORKASPACE' ) );
#194 = VECTOR ( 'NONE', #58, 1000.000000000000000 ) ;
#195 = CARTESIAN_POINT ( 'NONE',  ( 8.500000000000000000, 0.0000000000000000000, -30000.00000000000000 ) ) ;
#196 = DIRECTION ( 'NONE',  ( 0.0000000000000000000, 0.0000000000000000000, 1.000000000000000000 ) ) ;
#197 = FACE_OUTER_BOUND ( 'NONE', #88, .T. ) ;
#198 = LINE ( 'NONE', #195, #99 ) ;
#199 = EDGE_CURVE ( 'NONE', #211, #212, #83, .T. ) ;
#200 = UNCERTAINTY_MEASURE_WITH_UNIT (LENGTH_MEASURE( 1.000000000000000082E-05 ), #262, 'distance_accuracy_value', 'NONE');
#201 = CARTESIAN_POINT ( 'NONE',  ( 8.500000000000000000, 0.0000000000000000000, -30000.00000000000000 ) ) ;
#202 = LINE ( 'NONE', #100, #101 ) ;
#203 = VECTOR ( 'NONE', #160, 1000.000000000000000 ) ;
#204 = SURFACE_STYLE_FILL_AREA ( #164 ) ;
#205 = AXIS2_PLACEMENT_3D ( 'NONE', #206, #55, #10 ) ;
#206 = CARTESIAN_POINT ( 'NONE',  ( 8.500000000000000000, -4.999999999999997335, -30000.00000000000000 ) ) ;
#207 = DIRECTION ( 'NONE',  ( -1.000000000000000000, -1.508455196501570936E-16, 0.0000000000000000000 ) ) ;
#208 = DIRECTION ( 'NONE',  ( 1.000000000000000000, 0.0000000000000000000, 0.0000000000000000000 ) ) ;
#209 = VECTOR ( 'NONE', #140, 1000.000000000000000 ) ;
#210 = CARTESIAN_POINT ( 'NONE',  ( 8.500000000000000000, 0.0000000000000000000, -30000.00000000000000 ) ) ;
#211 = VERTEX_POINT ( 'NONE', #185 ) ;
#212 = VERTEX_POINT ( 'NONE', #166 ) ;
#213 = DIRECTION ( 'NONE',  ( -1.000000000000000000, -1.508455196501570936E-16, 0.0000000000000000000 ) ) ;
#214 = ADVANCED_FACE ( 'NONE', ( #147 ), #258, .T. ) ;
#215 = VECTOR ( 'NONE', #224, 1000.000000000000000 ) ;
#216 = LINE ( 'NONE', #253, #209 ) ;
#217 = EDGE_CURVE ( 'NONE', #190, #173, #259, .T. ) ;
#218 = PLANE ( 'NONE',  #126 ) ;
#219 = ADVANCED_FACE ( 'NONE', ( #148 ), #129, .T. ) ;
#220 = DIRECTION ( 'NONE',  ( 1.000000000000000000, 0.0000000000000000000, -0.0000000000000000000 ) ) ;
#221 = AXIS2_PLACEMENT_3D ( 'NONE', #177, #254, #76 ) ;
#222 = CARTESIAN_POINT ( 'NONE',  ( -11.50000000000000000, 0.0000000000000000000, -30000.00000000000000 ) ) ;
#223 = VERTEX_POINT ( 'NONE', #62 ) ;
#224 = DIRECTION ( 'NONE',  ( 0.0000000000000000000, 1.000000000000000000, 0.0000000000000000000 ) ) ;
#225 = CARTESIAN_POINT ( 'NONE',  ( 11.50000000000000355, -4.999999999999999112, -30000.00000000000000 ) ) ;
#226 = EDGE_LOOP ( 'NONE', ( #113, #134, #57, #131, #14, #117 ) ) ;
#227 = VECTOR ( 'NONE', #207, 1000.000000000000000 ) ;
#228 = EDGE_LOOP ( 'NONE', ( #1, #132, #42, #133 ) ) ;
#229 = ORIENTED_EDGE ( 'NONE', *, *, #78, .F. ) ;
#230 = CARTESIAN_POINT ( 'NONE',  ( -11.50000000000000355, 3.999999999999996447, -30000.00000000000000 ) ) ;
#231 = ORIENTED_EDGE ( 'NONE', *, *, #182, .F. ) ;
#232 = ORIENTED_EDGE ( 'NONE', *, *, #91, .F. ) ;
#233 = FILL_AREA_STYLE_COLOUR ( '', #2 ) ;
#234 = EDGE_CURVE ( 'NONE', #173, #47, #149, .T. ) ;
#235 = DIRECTION ( 'NONE',  ( 0.0000000000000000000, 0.0000000000000000000, 1.000000000000000000 ) ) ;
#236 = CARTESIAN_POINT ( 'NONE',  ( 8.500000000000000000, -4.999999999999997335, -30000.00000000000000 ) ) ;
#237 = CARTESIAN_POINT ( 'NONE',  ( -11.50000000000000000, 0.0000000000000000000, -30000.00000000000000 ) ) ;
#238 = DIRECTION ( 'NONE',  ( 1.000000000000000000, -5.782411586589351722E-16, 0.0000000000000000000 ) ) ;
#239 =( NAMED_UNIT ( * ) SI_UNIT ( $, .STERADIAN. ) SOLID_ANGLE_UNIT ( ) );
#240 =( NAMED_UNIT ( * ) PLANE_ANGLE_UNIT ( ) SI_UNIT ( $, .RADIAN. ) );
#241 = ORIENTED_EDGE ( 'NONE', *, *, #40, .T. ) ;
#242 = CARTESIAN_POINT ( 'NONE',  ( 11.50000000000000355, 4.000000000000000000, -30000.00000000000000 ) ) ;
#243 = CLOSED_SHELL ( 'NONE', ( #94, #15, #219, #214, #120, #146, #167, #109 ) ) ;
#244 =( GEOMETRIC_REPRESENTATION_CONTEXT ( 3 ) GLOBAL_UNCERTAINTY_ASSIGNED_CONTEXT ( ( #200 ) ) GLOBAL_UNIT_ASSIGNED_CONTEXT ( ( #262, #240, #39 ) ) REPRESENTATION_CONTEXT ( 'NONE', 'WORKASPACE' ) );
#245 = ORIENTED_EDGE ( 'NONE', *, *, #9, .F. ) ;
#246 = STYLED_ITEM ( 'NONE', ( #54 ), #181 ) ;
#247 = DIRECTION ( 'NONE',  ( -1.508455196501570936E-16, 1.000000000000000000, 0.0000000000000000000 ) ) ;
#248 = LINE ( 'NONE', #230, #30 ) ;
#249 = VERTEX_POINT ( 'NONE', #183 ) ;
#250 = ORIENTED_EDGE ( 'NONE', *, *, #199, .F. ) ;
#251 = UNCERTAINTY_MEASURE_WITH_UNIT (LENGTH_MEASURE( 1.000000000000000082E-05 ), #252, 'distance_accuracy_value', 'NONE');
#252 =( LENGTH_UNIT ( ) NAMED_UNIT ( * ) SI_UNIT ( .MILLI., .METRE. ) );
#253 = CARTESIAN_POINT ( 'NONE',  ( 11.50000000000000355, 4.000000000000000000, -30000.00000000000000 ) ) ;
#254 = DIRECTION ( 'NONE',  ( -1.000000000000000000, 0.0000000000000000000, 0.0000000000000000000 ) ) ;
#255 = DIRECTION ( 'NONE',  ( 0.0000000000000000000, 0.0000000000000000000, 1.000000000000000000 ) ) ;
#256 = SURFACE_SIDE_STYLE ('',( #3 ) ) ;
#257 = EDGE_CURVE ( 'NONE', #43, #211, #202, .T. ) ;
#258 = PLANE ( 'NONE',  #205 ) ;
#259 = LINE ( 'NONE', #16, #215 ) ;
#260 = VERTEX_POINT ( 'NONE', #17 ) ;
#261 = VECTOR ( 'NONE', #110, 1000.000000000000000 ) ;
#262 =( LENGTH_UNIT ( ) NAMED_UNIT ( * ) SI_UNIT ( .MILLI., .METRE. ) );
#263 = DIRECTION ( 'NONE',  ( 1.000000000000000000, 0.0000000000000000000, 0.0000000000000000000 ) ) ;
#264 = ORIENTED_EDGE ( 'NONE', *, *, #179, .F. ) ;
#265 = ORIENTED_EDGE ( 'NONE', *, *, #91, .T. ) ;
#266 = AXIS2_PLACEMENT_3D ( 'NONE', #225, #263, #38 ) ;
#267 = CARTESIAN_POINT ( 'NONE',  ( -11.50000000000000355, 3.999999999999996447, 0.0000000000000000000 ) ) ;
#268 = ORIENTED_EDGE ( 'NONE', *, *, #217, .T. ) ;
ENDSEC;
END-ISO-10303-21;
