ISO-10303-21;
HEADER;
FILE_DESCRIPTION (( 'STEP AP214' ),
    '1' );
FILE_NAME ('5AE42DBA-3B1E-4234-AE4D-FFD7ED1F02F6.STEP',
    '2023-08-01T13:21:49',
    ( '' ),
    ( '' ),
    'SwSTEP 2.0',
    'SolidWorks 2022',
    '' );
FILE_SCHEMA (( 'AUTOMOTIVE_DESIGN' ));
ENDSEC;

DATA;
#1 = FACE_OUTER_BOUND ( 'NONE', #101, .T. ) ;
#2 = ORIENTED_EDGE ( 'NONE', *, *, #285, .F. ) ;
#3 = EDGE_LOOP ( 'NONE', ( #94, #79, #333, #232 ) ) ;
#4 = EDGE_LOOP ( 'NONE', ( #231, #173, #262, #55 ) ) ;
#5 = DIRECTION ( 'NONE',  ( 0.0000000000000000000, 0.0000000000000000000, 1.000000000000000000 ) ) ;
#6 = ORIENTED_EDGE ( 'NONE', *, *, #164, .F. ) ;
#7 = DIRECTION ( 'NONE',  ( 0.0000000000000000000, 0.0000000000000000000, 1.000000000000000000 ) ) ;
#8 = ADVANCED_FACE ( 'NONE', ( #107 ), #237, .T. ) ;
#9 = LINE ( 'NONE', #222, #170 ) ;
#10 = DIRECTION ( 'NONE',  ( -1.000000000000000000, -1.224646799147353454E-16, -0.0000000000000000000 ) ) ;
#11 = CARTESIAN_POINT ( 'NONE',  ( 20.50000000000000355, -8.999999999999994671, -3000.000000000000000 ) ) ;
#12 = CARTESIAN_POINT ( 'NONE',  ( -20.49999999999999645, 0.0000000000000000000, -3000.000000000000000 ) ) ;
#13 = CARTESIAN_POINT ( 'NONE',  ( 20.50000000000000355, -8.999999999999994671, 0.0000000000000000000 ) ) ;
#14 = LINE ( 'NONE', #110, #212 ) ;
#15 = CARTESIAN_POINT ( 'NONE',  ( -20.49999999999999645, -9.000000000000000000, -3000.000000000000000 ) ) ;
#16 = VERTEX_POINT ( 'NONE', #317 ) ;
#17 = AXIS2_PLACEMENT_3D ( 'NONE', #215, #148, #265 ) ;
#18 = CARTESIAN_POINT ( 'NONE',  ( -20.49999999999999645, -9.000000000000000000, -3000.000000000000000 ) ) ;
#19 = ORIENTED_EDGE ( 'NONE', *, *, #185, .T. ) ;
#20 = CARTESIAN_POINT ( 'NONE',  ( -15.49999999999999645, -9.000000000000001776, 0.0000000000000000000 ) ) ;
#21 = ORIENTED_EDGE ( 'NONE', *, *, #108, .F. ) ;
#22 = FACE_OUTER_BOUND ( 'NONE', #96, .T. ) ;
#23 = ORIENTED_EDGE ( 'NONE', *, *, #307, .F. ) ;
#24 = DIRECTION ( 'NONE',  ( 0.0000000000000000000, 0.0000000000000000000, 1.000000000000000000 ) ) ;
#25 = VECTOR ( 'NONE', #187, 1000.000000000000000 ) ;
#26 = ORIENTED_EDGE ( 'NONE', *, *, #285, .T. ) ;
#27 = CARTESIAN_POINT ( 'NONE',  ( 20.50000000000000355, 5.021051876504148963E-15, 0.0000000000000000000 ) ) ;
#28 =( NAMED_UNIT ( * ) PLANE_ANGLE_UNIT ( ) SI_UNIT ( $, .RADIAN. ) );
#29 = EDGE_CURVE ( 'NONE', #331, #310, #217, .T. ) ;
#30 = LINE ( 'NONE', #27, #162 ) ;
#31 =( GEOMETRIC_REPRESENTATION_CONTEXT ( 3 ) GLOBAL_UNCERTAINTY_ASSIGNED_CONTEXT ( ( #229 ) ) GLOBAL_UNIT_ASSIGNED_CONTEXT ( ( #167, #143, #47 ) ) REPRESENTATION_CONTEXT ( 'NONE', 'WORKASPACE' ) );
#32 = SURFACE_STYLE_FILL_AREA ( #49 ) ;
#33 = DIRECTION ( 'NONE',  ( -1.000000000000000000, 0.0000000000000000000, 0.0000000000000000000 ) ) ;
#34 = DIRECTION ( 'NONE',  ( 0.0000000000000000000, 0.0000000000000000000, 1.000000000000000000 ) ) ;
#35 = AXIS2_PLACEMENT_3D ( 'NONE', #90, #40, #242 ) ;
#36 = DIRECTION ( 'NONE',  ( 0.0000000000000000000, 0.0000000000000000000, 1.000000000000000000 ) ) ;
#37 = CARTESIAN_POINT ( 'NONE',  ( -20.49999999999999645, 0.0000000000000000000, -3000.000000000000000 ) ) ;
#38 = CARTESIAN_POINT ( 'NONE',  ( 15.50000000000000355, -8.999999999999992895, -3000.000000000000000 ) ) ;
#39 = AXIS2_PLACEMENT_3D ( 'NONE', #18, #44, #139 ) ;
#40 = DIRECTION ( 'NONE',  ( 1.000000000000000000, 0.0000000000000000000, -0.0000000000000000000 ) ) ;
#41 = DIRECTION ( 'NONE',  ( -0.0000000000000000000, 0.0000000000000000000, -1.000000000000000000 ) ) ;
#42 = CARTESIAN_POINT ( 'NONE',  ( -20.49999999999999645, 0.0000000000000000000, 0.0000000000000000000 ) ) ;
#43 = ORIENTED_EDGE ( 'NONE', *, *, #210, .F. ) ;
#44 = DIRECTION ( 'NONE',  ( -3.469446951953613203E-16, -1.000000000000000000, 0.0000000000000000000 ) ) ;
#45 = ORIENTED_EDGE ( 'NONE', *, *, #235, .T. ) ;
#46 = MANIFOLD_SOLID_BREP ( 'Boss-Extrude1', #194 ) ;
#47 =( NAMED_UNIT ( * ) SI_UNIT ( $, .STERADIAN. ) SOLID_ANGLE_UNIT ( ) );
#48 = ORIENTED_EDGE ( 'NONE', *, *, #29, .F. ) ;
#49 = FILL_AREA_STYLE ('',( #284 ) ) ;
#50 = VERTEX_POINT ( 'NONE', #104 ) ;
#51 = LINE ( 'NONE', #213, #292 ) ;
#52 = EDGE_CURVE ( 'NONE', #294, #254, #51, .T. ) ;
#53 = ORIENTED_EDGE ( 'NONE', *, *, #235, .F. ) ;
#54 = EDGE_CURVE ( 'NONE', #282, #121, #240, .T. ) ;
#55 = ORIENTED_EDGE ( 'NONE', *, *, #252, .T. ) ;
#56 = EDGE_LOOP ( 'NONE', ( #81, #199, #286, #120 ) ) ;
#57 = FILL_AREA_STYLE_COLOUR ( '', #324 ) ;
#58 = LINE ( 'NONE', #223, #319 ) ;
#59 = APPLICATION_CONTEXT ( 'automotive_design' ) ;
#60 = FACE_OUTER_BOUND ( 'NONE', #97, .T. ) ;
#61 = VECTOR ( 'NONE', #91, 1000.000000000000000 ) ;
#62 = CARTESIAN_POINT ( 'NONE',  ( 0.0000000000000000000, 0.0000000000000000000, -3000.000000000000000 ) ) ;
#63 = CARTESIAN_POINT ( 'NONE',  ( 15.50000000000000355, -3.999999999999992450, -3000.000000000000000 ) ) ;
#64 = ADVANCED_FACE ( 'NONE', ( #261 ), #127, .T. ) ;
#65 = DIRECTION ( 'NONE',  ( -3.469446951953613203E-16, -1.000000000000000000, 0.0000000000000000000 ) ) ;
#66 = VECTOR ( 'NONE', #268, 1000.000000000000000 ) ;
#67 = LINE ( 'NONE', #163, #61 ) ;
#68 = CARTESIAN_POINT ( 'NONE',  ( -15.49999999999999645, -9.000000000000001776, -3000.000000000000000 ) ) ;
#69 = ORIENTED_EDGE ( 'NONE', *, *, #155, .F. ) ;
#70 = ORIENTED_EDGE ( 'NONE', *, *, #159, .F. ) ;
#71 = FACE_OUTER_BOUND ( 'NONE', #144, .T. ) ;
#72 = EDGE_LOOP ( 'NONE', ( #147, #43, #306, #214 ) ) ;
#73 = UNCERTAINTY_MEASURE_WITH_UNIT (LENGTH_MEASURE( 1.000000000000000082E-05 ), #84, 'distance_accuracy_value', 'NONE');
#74 = ADVANCED_FACE ( 'NONE', ( #87 ), #178, .T. ) ;
#75 = ORIENTED_EDGE ( 'NONE', *, *, #99, .T. ) ;
#76 = EDGE_CURVE ( 'NONE', #201, #50, #30, .T. ) ;
#77 = ORIENTED_EDGE ( 'NONE', *, *, #99, .F. ) ;
#78 = AXIS2_PLACEMENT_3D ( 'NONE', #62, #36, #114 ) ;
#79 = ORIENTED_EDGE ( 'NONE', *, *, #198, .F. ) ;
#80 = PRODUCT_DEFINITION ( 'UNKNOWN', '', #142, #279 ) ;
#81 = ORIENTED_EDGE ( 'NONE', *, *, #185, .F. ) ;
#82 = DIRECTION ( 'NONE',  ( 1.000000000000000000, 1.119176436114069085E-16, -0.0000000000000000000 ) ) ;
#83 = EDGE_CURVE ( 'NONE', #119, #207, #9, .T. ) ;
#84 =( LENGTH_UNIT ( ) NAMED_UNIT ( * ) SI_UNIT ( .MILLI., .METRE. ) );
#85 = SURFACE_SIDE_STYLE ('',( #312 ) ) ;
#86 = VECTOR ( 'NONE', #146, 1000.000000000000000 ) ;
#87 = FACE_OUTER_BOUND ( 'NONE', #318, .T. ) ;
#88 = CARTESIAN_POINT ( 'NONE',  ( -20.49999999999999645, -9.000000000000000000, 0.0000000000000000000 ) ) ;
#89 = PLANE ( 'NONE',  #35 ) ;
#90 = CARTESIAN_POINT ( 'NONE',  ( 20.50000000000000355, 5.021051876504148963E-15, -3000.000000000000000 ) ) ;
#91 = DIRECTION ( 'NONE',  ( 0.0000000000000000000, 0.0000000000000000000, 1.000000000000000000 ) ) ;
#92 = VECTOR ( 'NONE', #154, 1000.000000000000000 ) ;
#93 = CARTESIAN_POINT ( 'NONE',  ( -20.49999999999999645, -9.000000000000000000, -3000.000000000000000 ) ) ;
#94 = ORIENTED_EDGE ( 'NONE', *, *, #134, .F. ) ;
#95 = CARTESIAN_POINT ( 'NONE',  ( -15.49999999999999645, -3.999999999999995559, -3000.000000000000000 ) ) ;
#96 = EDGE_LOOP ( 'NONE', ( #53, #203, #26, #311 ) ) ;
#97 = EDGE_LOOP ( 'NONE', ( #283, #124, #172, #278 ) ) ;
#98 = ORIENTED_EDGE ( 'NONE', *, *, #76, .T. ) ;
#99 = EDGE_CURVE ( 'NONE', #331, #174, #275, .T. ) ;
#100 = ORIENTED_EDGE ( 'NONE', *, *, #183, .F. ) ;
#101 = EDGE_LOOP ( 'NONE', ( #211, #45, #226, #145, #168, #19, #98, #125 ) ) ;
#102 = VECTOR ( 'NONE', #82, 1000.000000000000000 ) ;
#103 = AXIS2_PLACEMENT_3D ( 'NONE', #303, #118, #257 ) ;
#104 = CARTESIAN_POINT ( 'NONE',  ( 20.50000000000000355, 5.021051876504148963E-15, 0.0000000000000000000 ) ) ;
#105 = ORIENTED_EDGE ( 'NONE', *, *, #164, .T. ) ;
#106 = ADVANCED_FACE ( 'NONE', ( #248 ), #89, .T. ) ;
#107 = FACE_OUTER_BOUND ( 'NONE', #3, .T. ) ;
#108 = EDGE_CURVE ( 'NONE', #258, #174, #113, .T. ) ;
#109 = LINE ( 'NONE', #111, #220 ) ;
#110 = CARTESIAN_POINT ( 'NONE',  ( 20.50000000000000355, -8.999999999999994671, -3000.000000000000000 ) ) ;
#111 = CARTESIAN_POINT ( 'NONE',  ( 15.50000000000000355, -8.999999999999992895, 0.0000000000000000000 ) ) ;
#112 = VECTOR ( 'NONE', #24, 1000.000000000000000 ) ;
#113 = LINE ( 'NONE', #189, #92 ) ;
#114 = DIRECTION ( 'NONE',  ( 1.000000000000000000, 0.0000000000000000000, -0.0000000000000000000 ) ) ;
#115 = CARTESIAN_POINT ( 'NONE',  ( -15.49999999999999645, -9.000000000000001776, -3000.000000000000000 ) ) ;
#116 = ORIENTED_EDGE ( 'NONE', *, *, #29, .T. ) ;
#117 =( GEOMETRIC_REPRESENTATION_CONTEXT ( 3 ) GLOBAL_UNCERTAINTY_ASSIGNED_CONTEXT ( ( #73 ) ) GLOBAL_UNIT_ASSIGNED_CONTEXT ( ( #84, #182, #293 ) ) REPRESENTATION_CONTEXT ( 'NONE', 'WORKASPACE' ) );
#118 = DIRECTION ( 'NONE',  ( 0.0000000000000000000, 0.0000000000000000000, 1.000000000000000000 ) ) ;
#119 = VERTEX_POINT ( 'NONE', #156 ) ;
#120 = ORIENTED_EDGE ( 'NONE', *, *, #210, .T. ) ;
#121 = VERTEX_POINT ( 'NONE', #88 ) ;
#122 = COLOUR_RGB ( '',0.0000000000000000000, 1.000000000000000000, 0.0000000000000000000 ) ;
#123 = CARTESIAN_POINT ( 'NONE',  ( -20.49999999999999645, 0.0000000000000000000, -3000.000000000000000 ) ) ;
#124 = ORIENTED_EDGE ( 'NONE', *, *, #320, .F. ) ;
#125 = ORIENTED_EDGE ( 'NONE', *, *, #153, .T. ) ;
#126 = SURFACE_SIDE_STYLE ('',( #32 ) ) ;
#127 = PLANE ( 'NONE',  #176 ) ;
#128 = APPLICATION_PROTOCOL_DEFINITION ( 'draft international standard', 'automotive_design', 1998, #175 ) ;
#129 = PLANE ( 'NONE',  #135 ) ;
#130 = VECTOR ( 'NONE', #202, 1000.000000000000000 ) ;
#131 = CARTESIAN_POINT ( 'NONE',  ( 15.50000000000000355, -8.999999999999992895, -3000.000000000000000 ) ) ;
#132 = FACE_OUTER_BOUND ( 'NONE', #308, .T. ) ;
#133 = LINE ( 'NONE', #197, #112 ) ;
#134 = EDGE_CURVE ( 'NONE', #140, #16, #109, .T. ) ;
#135 = AXIS2_PLACEMENT_3D ( 'NONE', #11, #65, #299 ) ;
#136 = CARTESIAN_POINT ( 'NONE',  ( -15.49999999999999645, -3.999999999999995559, -3000.000000000000000 ) ) ;
#137 = PLANE ( 'NONE',  #103 ) ;
#138 = ADVANCED_FACE ( 'NONE', ( #132 ), #245, .F. ) ;
#139 = DIRECTION ( 'NONE',  ( 1.000000000000000000, -3.469446951953613203E-16, 0.0000000000000000000 ) ) ;
#140 = VERTEX_POINT ( 'NONE', #190 ) ;
#141 = STYLED_ITEM ( 'NONE', ( #177 ), #46 ) ;
#142 = PRODUCT_DEFINITION_FORMATION_WITH_SPECIFIED_SOURCE ( 'ANY', '', #263, .NOT_KNOWN. ) ;
#143 =( NAMED_UNIT ( * ) PLANE_ANGLE_UNIT ( ) SI_UNIT ( $, .RADIAN. ) );
#144 = EDGE_LOOP ( 'NONE', ( #21, #23, #105, #75 ) ) ;
#145 = ORIENTED_EDGE ( 'NONE', *, *, #183, .T. ) ;
#146 = DIRECTION ( 'NONE',  ( 0.0000000000000000000, 0.0000000000000000000, 1.000000000000000000 ) ) ;
#147 = ORIENTED_EDGE ( 'NONE', *, *, #76, .F. ) ;
#148 = DIRECTION ( 'NONE',  ( 1.119176436114069085E-16, -1.000000000000000000, 0.0000000000000000000 ) ) ;
#149 =( LENGTH_UNIT ( ) NAMED_UNIT ( * ) SI_UNIT ( .MILLI., .METRE. ) );
#150 = CARTESIAN_POINT ( 'NONE',  ( -20.49999999999999645, 0.0000000000000000000, -3000.000000000000000 ) ) ;
#151 = VECTOR ( 'NONE', #332, 1000.000000000000000 ) ;
#152 = CARTESIAN_POINT ( 'NONE',  ( 15.50000000000000355, -3.999999999999992450, -3000.000000000000000 ) ) ;
#153 = EDGE_CURVE ( 'NONE', #50, #282, #328, .T. ) ;
#154 = DIRECTION ( 'NONE',  ( -0.0000000000000000000, 1.000000000000000000, -0.0000000000000000000 ) ) ;
#155 = EDGE_CURVE ( 'NONE', #207, #294, #296, .T. ) ;
#156 = CARTESIAN_POINT ( 'NONE',  ( 20.50000000000000355, -8.999999999999994671, -3000.000000000000000 ) ) ;
#157 = VECTOR ( 'NONE', #160, 1000.000000000000000 ) ;
#158 = DIRECTION ( 'NONE',  ( 1.000000000000000000, -3.469446951953613696E-16, -0.0000000000000000000 ) ) ;
#159 = EDGE_CURVE ( 'NONE', #310, #209, #186, .T. ) ;
#160 = DIRECTION ( 'NONE',  ( 0.0000000000000000000, 0.0000000000000000000, 1.000000000000000000 ) ) ;
#161 = DIRECTION ( 'NONE',  ( -1.000000000000000000, -1.224646799147353454E-16, 0.0000000000000000000 ) ) ;
#162 = VECTOR ( 'NONE', #238, 1000.000000000000000 ) ;
#163 = CARTESIAN_POINT ( 'NONE',  ( 15.50000000000000355, -8.999999999999992895, -3000.000000000000000 ) ) ;
#164 = EDGE_CURVE ( 'NONE', #304, #331, #58, .T. ) ;
#165 = LINE ( 'NONE', #15, #301 ) ;
#166 = ORIENTED_EDGE ( 'NONE', *, *, #83, .F. ) ;
#167 =( LENGTH_UNIT ( ) NAMED_UNIT ( * ) SI_UNIT ( .MILLI., .METRE. ) );
#168 = ORIENTED_EDGE ( 'NONE', *, *, #134, .T. ) ;
#169 = MECHANICAL_DESIGN_GEOMETRIC_PRESENTATION_REPRESENTATION (  '', ( #141 ), #204 ) ;
#170 = VECTOR ( 'NONE', #323, 1000.000000000000000 ) ;
#171 = CARTESIAN_POINT ( 'NONE',  ( -20.49999999999999645, 0.0000000000000000000, -3000.000000000000000 ) ) ;
#172 = ORIENTED_EDGE ( 'NONE', *, *, #155, .T. ) ;
#173 = ORIENTED_EDGE ( 'NONE', *, *, #255, .F. ) ;
#174 = VERTEX_POINT ( 'NONE', #326 ) ;
#175 = APPLICATION_CONTEXT ( 'automotive_design' ) ;
#176 = AXIS2_PLACEMENT_3D ( 'NONE', #150, #33, #7 ) ;
#177 = PRESENTATION_STYLE_ASSIGNMENT (( #291 ) ) ;
#178 = PLANE ( 'NONE',  #17 ) ;
#179 = PRODUCT_CONTEXT ( 'NONE', #59, 'mechanical' ) ;
#180 = CARTESIAN_POINT ( 'NONE',  ( -20.49999999999999645, 0.0000000000000000000, 0.0000000000000000000 ) ) ;
#181 = VECTOR ( 'NONE', #251, 1000.000000000000000 ) ;
#182 =( NAMED_UNIT ( * ) PLANE_ANGLE_UNIT ( ) SI_UNIT ( $, .RADIAN. ) );
#183 = EDGE_CURVE ( 'NONE', #174, #140, #295, .T. ) ;
#184 = ORIENTED_EDGE ( 'NONE', *, *, #52, .F. ) ;
#185 = EDGE_CURVE ( 'NONE', #16, #201, #300, .T. ) ;
#186 = LINE ( 'NONE', #131, #227 ) ;
#187 = DIRECTION ( 'NONE',  ( -1.000000000000000000, -1.224646799147353454E-16, -0.0000000000000000000 ) ) ;
#188 = PRESENTATION_LAYER_ASSIGNMENT (  '', '', ( #141 ) ) ;
#189 = CARTESIAN_POINT ( 'NONE',  ( -15.49999999999999645, -3.999999999999995559, 0.0000000000000000000 ) ) ;
#190 = CARTESIAN_POINT ( 'NONE',  ( 15.50000000000000355, -3.999999999999992450, 0.0000000000000000000 ) ) ;
#191 = CARTESIAN_POINT ( 'NONE',  ( 15.50000000000000355, -3.999999999999992450, 0.0000000000000000000 ) ) ;
#192 = ADVANCED_FACE ( 'NONE', ( #273 ), #129, .T. ) ;
#193 = LINE ( 'NONE', #93, #181 ) ;
#194 = CLOSED_SHELL ( 'NONE', ( #64, #205, #106, #192, #8, #74, #259, #316, #138, #269 ) ) ;
#195 = STYLED_ITEM ( 'NONE', ( #290 ), #196 ) ;
#196 = ADVANCED_BREP_SHAPE_REPRESENTATION ( '5AE42DBA-3B1E-4234-AE4D-FFD7ED1F02F6', ( #46, #297 ), #31 ) ;
#197 = CARTESIAN_POINT ( 'NONE',  ( 20.50000000000000355, -8.999999999999994671, -3000.000000000000000 ) ) ;
#198 = EDGE_CURVE ( 'NONE', #310, #140, #327, .T. ) ;
#199 = ORIENTED_EDGE ( 'NONE', *, *, #224, .F. ) ;
#200 = PLANE ( 'NONE',  #270 ) ;
#201 = VERTEX_POINT ( 'NONE', #13 ) ;
#202 = DIRECTION ( 'NONE',  ( 0.0000000000000000000, 0.0000000000000000000, 1.000000000000000000 ) ) ;
#203 = ORIENTED_EDGE ( 'NONE', *, *, #252, .F. ) ;
#204 =( GEOMETRIC_REPRESENTATION_CONTEXT ( 3 ) GLOBAL_UNCERTAINTY_ASSIGNED_CONTEXT ( ( #247 ) ) GLOBAL_UNIT_ASSIGNED_CONTEXT ( ( #149, #28, #321 ) ) REPRESENTATION_CONTEXT ( 'NONE', 'WORKASPACE' ) );
#205 = ADVANCED_FACE ( 'NONE', ( #60 ), #218, .T. ) ;
#206 = LINE ( 'NONE', #228, #151 ) ;
#207 = VERTEX_POINT ( 'NONE', #271 ) ;
#208 = EDGE_CURVE ( 'NONE', #209, #119, #14, .T. ) ;
#209 = VERTEX_POINT ( 'NONE', #38 ) ;
#210 = EDGE_CURVE ( 'NONE', #119, #201, #133, .T. ) ;
#211 = ORIENTED_EDGE ( 'NONE', *, *, #54, .T. ) ;
#212 = VECTOR ( 'NONE', #219, 1000.000000000000000 ) ;
#213 = CARTESIAN_POINT ( 'NONE',  ( -20.49999999999999645, 0.0000000000000000000, -3000.000000000000000 ) ) ;
#214 = ORIENTED_EDGE ( 'NONE', *, *, #320, .T. ) ;
#215 = CARTESIAN_POINT ( 'NONE',  ( 15.50000000000000355, -3.999999999999992450, -3000.000000000000000 ) ) ;
#216 = AXIS2_PLACEMENT_3D ( 'NONE', #37, #322, #161 ) ;
#217 = LINE ( 'NONE', #152, #102 ) ;
#218 = PLANE ( 'NONE',  #216 ) ;
#219 = DIRECTION ( 'NONE',  ( 1.000000000000000000, -3.469446951953613696E-16, -0.0000000000000000000 ) ) ;
#220 = VECTOR ( 'NONE', #298, 1000.000000000000000 ) ;
#221 = CARTESIAN_POINT ( 'NONE',  ( -20.49999999999999645, 0.0000000000000000000, 0.0000000000000000000 ) ) ;
#222 = CARTESIAN_POINT ( 'NONE',  ( 20.50000000000000355, 5.021051876504148963E-15, -3000.000000000000000 ) ) ;
#223 = CARTESIAN_POINT ( 'NONE',  ( -15.49999999999999645, -3.999999999999995559, -3000.000000000000000 ) ) ;
#224 = EDGE_CURVE ( 'NONE', #209, #16, #67, .T. ) ;
#225 = LINE ( 'NONE', #249, #329 ) ;
#226 = ORIENTED_EDGE ( 'NONE', *, *, #108, .T. ) ;
#227 = VECTOR ( 'NONE', #243, 1000.000000000000000 ) ;
#228 = CARTESIAN_POINT ( 'NONE',  ( 20.50000000000000355, 5.021051876504148963E-15, -3000.000000000000000 ) ) ;
#229 = UNCERTAINTY_MEASURE_WITH_UNIT (LENGTH_MEASURE( 1.000000000000000082E-05 ), #167, 'distance_accuracy_value', 'NONE');
#230 = DIRECTION ( 'NONE',  ( 1.000000000000000000, 0.0000000000000000000, -0.0000000000000000000 ) ) ;
#231 = ORIENTED_EDGE ( 'NONE', *, *, #54, .F. ) ;
#232 = ORIENTED_EDGE ( 'NONE', *, *, #224, .T. ) ;
#233 = PRESENTATION_LAYER_ASSIGNMENT (  '', '', ( #195 ) ) ;
#234 = DIRECTION ( 'NONE',  ( 1.000000000000000000, -3.469446951953613696E-16, 0.0000000000000000000 ) ) ;
#235 = EDGE_CURVE ( 'NONE', #121, #258, #225, .T. ) ;
#236 = DIRECTION ( 'NONE',  ( 0.0000000000000000000, 0.0000000000000000000, 1.000000000000000000 ) ) ;
#237 = PLANE ( 'NONE',  #313 ) ;
#238 = DIRECTION ( 'NONE',  ( -0.0000000000000000000, 1.000000000000000000, -0.0000000000000000000 ) ) ;
#239 = CARTESIAN_POINT ( 'NONE',  ( 15.50000000000000355, -8.999999999999992895, -3000.000000000000000 ) ) ;
#240 = LINE ( 'NONE', #180, #314 ) ;
#241 = MECHANICAL_DESIGN_GEOMETRIC_PRESENTATION_REPRESENTATION (  '', ( #195 ), #117 ) ;
#242 = DIRECTION ( 'NONE',  ( -0.0000000000000000000, 0.0000000000000000000, -1.000000000000000000 ) ) ;
#243 = DIRECTION ( 'NONE',  ( -0.0000000000000000000, -1.000000000000000000, -0.0000000000000000000 ) ) ;
#244 = PRODUCT_RELATED_PRODUCT_CATEGORY ( 'part', '', ( #263 ) ) ;
#245 = PLANE ( 'NONE',  #78 ) ;
#246 = DIRECTION ( 'NONE',  ( -0.0000000000000000000, 1.000000000000000000, -0.0000000000000000000 ) ) ;
#247 = UNCERTAINTY_MEASURE_WITH_UNIT (LENGTH_MEASURE( 1.000000000000000082E-05 ), #149, 'distance_accuracy_value', 'NONE');
#248 = FACE_OUTER_BOUND ( 'NONE', #72, .T. ) ;
#249 = CARTESIAN_POINT ( 'NONE',  ( -20.49999999999999645, -9.000000000000000000, 0.0000000000000000000 ) ) ;
#250 = ORIENTED_EDGE ( 'NONE', *, *, #208, .F. ) ;
#251 = DIRECTION ( 'NONE',  ( 0.0000000000000000000, 0.0000000000000000000, 1.000000000000000000 ) ) ;
#252 = EDGE_CURVE ( 'NONE', #254, #121, #193, .T. ) ;
#253 = LINE ( 'NONE', #123, #86 ) ;
#254 = VERTEX_POINT ( 'NONE', #276 ) ;
#255 = EDGE_CURVE ( 'NONE', #294, #282, #253, .T. ) ;
#256 = ORIENTED_EDGE ( 'NONE', *, *, #198, .T. ) ;
#257 = DIRECTION ( 'NONE',  ( 1.000000000000000000, 0.0000000000000000000, -0.0000000000000000000 ) ) ;
#258 = VERTEX_POINT ( 'NONE', #20 ) ;
#259 = ADVANCED_FACE ( 'NONE', ( #71 ), #200, .T. ) ;
#260 = DIRECTION ( 'NONE',  ( 1.000000000000000000, 0.0000000000000000000, 0.0000000000000000000 ) ) ;
#261 = FACE_OUTER_BOUND ( 'NONE', #4, .T. ) ;
#262 = ORIENTED_EDGE ( 'NONE', *, *, #52, .T. ) ;
#263 = PRODUCT ( '5AE42DBA-3B1E-4234-AE4D-FFD7ED1F02F6', '5AE42DBA-3B1E-4234-AE4D-FFD7ED1F02F6', '', ( #179 ) ) ;
#264 = SHAPE_DEFINITION_REPRESENTATION ( #334, #196 ) ;
#265 = DIRECTION ( 'NONE',  ( 1.000000000000000000, 1.119176436114069085E-16, 0.0000000000000000000 ) ) ;
#266 = SURFACE_STYLE_USAGE ( .BOTH. , #126 ) ;
#267 = DIRECTION ( 'NONE',  ( 0.0000000000000000000, -1.000000000000000000, 0.0000000000000000000 ) ) ;
#268 = DIRECTION ( 'NONE',  ( 1.000000000000000000, 1.119176436114069085E-16, -0.0000000000000000000 ) ) ;
#269 = ADVANCED_FACE ( 'NONE', ( #1 ), #137, .T. ) ;
#270 = AXIS2_PLACEMENT_3D ( 'NONE', #280, #230, #41 ) ;
#271 = CARTESIAN_POINT ( 'NONE',  ( 20.50000000000000355, 5.021051876504148963E-15, -3000.000000000000000 ) ) ;
#272 = CARTESIAN_POINT ( 'NONE',  ( 20.50000000000000355, -8.999999999999994671, 0.0000000000000000000 ) ) ;
#273 = FACE_OUTER_BOUND ( 'NONE', #56, .T. ) ;
#274 = VECTOR ( 'NONE', #34, 1000.000000000000000 ) ;
#275 = LINE ( 'NONE', #136, #274 ) ;
#276 = CARTESIAN_POINT ( 'NONE',  ( -20.49999999999999645, -9.000000000000000000, -3000.000000000000000 ) ) ;
#277 = CARTESIAN_POINT ( 'NONE',  ( 15.50000000000000355, -3.999999999999992450, -3000.000000000000000 ) ) ;
#278 = ORIENTED_EDGE ( 'NONE', *, *, #255, .T. ) ;
#279 = PRODUCT_DEFINITION_CONTEXT ( 'detailed design', #175, 'design' ) ;
#280 = CARTESIAN_POINT ( 'NONE',  ( -15.49999999999999645, -3.999999999999995559, -3000.000000000000000 ) ) ;
#281 = VECTOR ( 'NONE', #158, 1000.000000000000000 ) ;
#282 = VERTEX_POINT ( 'NONE', #42 ) ;
#283 = ORIENTED_EDGE ( 'NONE', *, *, #153, .F. ) ;
#284 = FILL_AREA_STYLE_COLOUR ( '', #122 ) ;
#285 = EDGE_CURVE ( 'NONE', #254, #304, #165, .T. ) ;
#286 = ORIENTED_EDGE ( 'NONE', *, *, #208, .T. ) ;
#287 = CARTESIAN_POINT ( 'NONE',  ( 0.0000000000000000000, 0.0000000000000000000, 0.0000000000000000000 ) ) ;
#288 = DIRECTION ( 'NONE',  ( -1.000000000000000000, 0.0000000000000000000, 0.0000000000000000000 ) ) ;
#289 = FILL_AREA_STYLE ('',( #57 ) ) ;
#290 = PRESENTATION_STYLE_ASSIGNMENT (( #266 ) ) ;
#291 = SURFACE_STYLE_USAGE ( .BOTH. , #85 ) ;
#292 = VECTOR ( 'NONE', #315, 1000.000000000000000 ) ;
#293 =( NAMED_UNIT ( * ) SI_UNIT ( $, .STERADIAN. ) SOLID_ANGLE_UNIT ( ) );
#294 = VERTEX_POINT ( 'NONE', #171 ) ;
#295 = LINE ( 'NONE', #191, #66 ) ;
#296 = LINE ( 'NONE', #12, #325 ) ;
#297 = AXIS2_PLACEMENT_3D ( 'NONE', #287, #236, #260 ) ;
#298 = DIRECTION ( 'NONE',  ( -0.0000000000000000000, -1.000000000000000000, -0.0000000000000000000 ) ) ;
#299 = DIRECTION ( 'NONE',  ( 1.000000000000000000, -3.469446951953613203E-16, 0.0000000000000000000 ) ) ;
#300 = LINE ( 'NONE', #272, #281 ) ;
#301 = VECTOR ( 'NONE', #234, 1000.000000000000000 ) ;
#302 = DIRECTION ( 'NONE',  ( 1.000000000000000000, -3.469446951953613696E-16, 0.0000000000000000000 ) ) ;
#303 = CARTESIAN_POINT ( 'NONE',  ( 0.0000000000000000000, 0.0000000000000000000, 0.0000000000000000000 ) ) ;
#304 = VERTEX_POINT ( 'NONE', #115 ) ;
#305 = PLANE ( 'NONE',  #39 ) ;
#306 = ORIENTED_EDGE ( 'NONE', *, *, #83, .T. ) ;
#307 = EDGE_CURVE ( 'NONE', #304, #258, #330, .T. ) ;
#308 = EDGE_LOOP ( 'NONE', ( #184, #69, #166, #250, #70, #48, #6, #2 ) ) ;
#309 = APPLICATION_PROTOCOL_DEFINITION ( 'draft international standard', 'automotive_design', 1998, #59 ) ;
#310 = VERTEX_POINT ( 'NONE', #277 ) ;
#311 = ORIENTED_EDGE ( 'NONE', *, *, #307, .T. ) ;
#312 = SURFACE_STYLE_FILL_AREA ( #289 ) ;
#313 = AXIS2_PLACEMENT_3D ( 'NONE', #239, #288, #5 ) ;
#314 = VECTOR ( 'NONE', #267, 1000.000000000000000 ) ;
#315 = DIRECTION ( 'NONE',  ( 0.0000000000000000000, -1.000000000000000000, 0.0000000000000000000 ) ) ;
#316 = ADVANCED_FACE ( 'NONE', ( #22 ), #305, .T. ) ;
#317 = CARTESIAN_POINT ( 'NONE',  ( 15.50000000000000355, -8.999999999999992895, 0.0000000000000000000 ) ) ;
#318 = EDGE_LOOP ( 'NONE', ( #100, #77, #116, #256 ) ) ;
#319 = VECTOR ( 'NONE', #246, 1000.000000000000000 ) ;
#320 = EDGE_CURVE ( 'NONE', #207, #50, #206, .T. ) ;
#321 =( NAMED_UNIT ( * ) SI_UNIT ( $, .STERADIAN. ) SOLID_ANGLE_UNIT ( ) );
#322 = DIRECTION ( 'NONE',  ( -1.224646799147353454E-16, 1.000000000000000000, 0.0000000000000000000 ) ) ;
#323 = DIRECTION ( 'NONE',  ( -0.0000000000000000000, 1.000000000000000000, -0.0000000000000000000 ) ) ;
#324 = COLOUR_RGB ( '',0.0000000000000000000, 1.000000000000000000, 0.0000000000000000000 ) ;
#325 = VECTOR ( 'NONE', #10, 1000.000000000000000 ) ;
#326 = CARTESIAN_POINT ( 'NONE',  ( -15.49999999999999645, -3.999999999999995559, 0.0000000000000000000 ) ) ;
#327 = LINE ( 'NONE', #63, #157 ) ;
#328 = LINE ( 'NONE', #221, #25 ) ;
#329 = VECTOR ( 'NONE', #302, 1000.000000000000000 ) ;
#330 = LINE ( 'NONE', #68, #130 ) ;
#331 = VERTEX_POINT ( 'NONE', #95 ) ;
#332 = DIRECTION ( 'NONE',  ( 0.0000000000000000000, 0.0000000000000000000, 1.000000000000000000 ) ) ;
#333 = ORIENTED_EDGE ( 'NONE', *, *, #159, .T. ) ;
#334 = PRODUCT_DEFINITION_SHAPE ( 'NONE', 'NONE',  #80 ) ;
ENDSEC;
END-ISO-10303-21;
