ISO-10303-21;
HEADER;
FILE_DESCRIPTION (( 'STEP AP214' ),
    '1' );
FILE_NAME ('DFBA3828-BB6E-4916-959F-E4F5E885A771.STEP',
    '2023-08-01T12:59:03',
    ( '' ),
    ( '' ),
    'SwSTEP 2.0',
    'SolidWorks 2022',
    '' );
FILE_SCHEMA (( 'AUTOMOTIVE_DESIGN' ));
ENDSEC;

DATA;
#1 = DIRECTION ( 'NONE',  ( 0.0000000000000000000, 0.0000000000000000000, 1.000000000000000000 ) ) ;
#2 = FACE_OUTER_BOUND ( 'NONE', #46, .T. ) ;
#3 = PRODUCT_DEFINITION_FORMATION_WITH_SPECIFIED_SOURCE ( 'ANY', '', #95, .NOT_KNOWN. ) ;
#4 = STYLED_ITEM ( 'NONE', ( #59 ), #199 ) ;
#5 = LINE ( 'NONE', #313, #251 ) ;
#6 = DIRECTION ( 'NONE',  ( 0.0000000000000000000, -0.0000000000000000000, -1.000000000000000000 ) ) ;
#7 = DIRECTION ( 'NONE',  ( 5.782411586589363555E-16, 1.000000000000000000, 0.0000000000000000000 ) ) ;
#8 = ORIENTED_EDGE ( 'NONE', *, *, #85, .F. ) ;
#9 = VECTOR ( 'NONE', #19, 1000.000000000000000 ) ;
#10 = CARTESIAN_POINT ( 'NONE',  ( -11.50000000000000178, 2.999999999999996891, -5000.000000000000000 ) ) ;
#11 = CARTESIAN_POINT ( 'NONE',  ( 8.500000000000003553, -4.000000000000004441, -5000.000000000000000 ) ) ;
#12 = CARTESIAN_POINT ( 'NONE',  ( 0.0000000000000000000, 0.0000000000000000000, 0.0000000000000000000 ) ) ;
#13 = ORIENTED_EDGE ( 'NONE', *, *, #110, .F. ) ;
#14 = VERTEX_POINT ( 'NONE', #73 ) ;
#15 = DIRECTION ( 'NONE',  ( -1.000000000000000000, 0.0000000000000000000, 0.0000000000000000000 ) ) ;
#16 = ADVANCED_FACE ( 'NONE', ( #24 ), #156, .T. ) ;
#17 = EDGE_LOOP ( 'NONE', ( #208, #326, #242, #54 ) ) ;
#18 = UNCERTAINTY_MEASURE_WITH_UNIT (LENGTH_MEASURE( 1.000000000000000082E-05 ), #37, 'distance_accuracy_value', 'NONE');
#19 = DIRECTION ( 'NONE',  ( -1.927470528863119542E-16, 1.000000000000000000, 0.0000000000000000000 ) ) ;
#20 = VECTOR ( 'NONE', #66, 1000.000000000000000 ) ;
#21 = ORIENTED_EDGE ( 'NONE', *, *, #30, .T. ) ;
#22 = PRESENTATION_LAYER_ASSIGNMENT (  '', '', ( #4 ) ) ;
#23 =( LENGTH_UNIT ( ) NAMED_UNIT ( * ) SI_UNIT ( .MILLI., .METRE. ) );
#24 = FACE_OUTER_BOUND ( 'NONE', #38, .T. ) ;
#25 = CARTESIAN_POINT ( 'NONE',  ( 8.500000000000003553, -4.000000000000004441, -5000.000000000000000 ) ) ;
#26 = EDGE_CURVE ( 'NONE', #275, #323, #52, .T. ) ;
#27 = LINE ( 'NONE', #74, #304 ) ;
#28 = DIRECTION ( 'NONE',  ( 5.782411586589362569E-16, 1.000000000000000000, 0.0000000000000000000 ) ) ;
#29 = DIRECTION ( 'NONE',  ( 1.000000000000000000, 1.927470528863119542E-16, -0.0000000000000000000 ) ) ;
#30 = EDGE_CURVE ( 'NONE', #190, #109, #310, .T. ) ;
#31 = ORIENTED_EDGE ( 'NONE', *, *, #146, .F. ) ;
#32 =( GEOMETRIC_REPRESENTATION_CONTEXT ( 3 ) GLOBAL_UNCERTAINTY_ASSIGNED_CONTEXT ( ( #18 ) ) GLOBAL_UNIT_ASSIGNED_CONTEXT ( ( #37, #243, #63 ) ) REPRESENTATION_CONTEXT ( 'NONE', 'WORKASPACE' ) );
#33 = DIRECTION ( 'NONE',  ( 0.0000000000000000000, 0.0000000000000000000, 1.000000000000000000 ) ) ;
#34 = PLANE ( 'NONE',  #286 ) ;
#35 =( LENGTH_UNIT ( ) NAMED_UNIT ( * ) SI_UNIT ( .MILLI., .METRE. ) );
#36 = CARTESIAN_POINT ( 'NONE',  ( 11.50000000000000000, -9.000000000000000000, 0.0000000000000000000 ) ) ;
#37 =( LENGTH_UNIT ( ) NAMED_UNIT ( * ) SI_UNIT ( .MILLI., .METRE. ) );
#38 = EDGE_LOOP ( 'NONE', ( #72, #31, #186, #158 ) ) ;
#39 = EDGE_CURVE ( 'NONE', #323, #276, #280, .T. ) ;
#40 = LINE ( 'NONE', #219, #68 ) ;
#41 = VERTEX_POINT ( 'NONE', #25 ) ;
#42 = FACE_OUTER_BOUND ( 'NONE', #172, .T. ) ;
#43 = EDGE_LOOP ( 'NONE', ( #247, #244, #322, #296 ) ) ;
#44 = EDGE_CURVE ( 'NONE', #189, #258, #49, .T. ) ;
#45 = CARTESIAN_POINT ( 'NONE',  ( -8.500000000000001776, 2.999999999999996891, -5000.000000000000000 ) ) ;
#46 = EDGE_LOOP ( 'NONE', ( #13, #197, #165, #21 ) ) ;
#47 = ORIENTED_EDGE ( 'NONE', *, *, #122, .T. ) ;
#48 = AXIS2_PLACEMENT_3D ( 'NONE', #300, #318, #86 ) ;
#49 = LINE ( 'NONE', #329, #88 ) ;
#50 = CARTESIAN_POINT ( 'NONE',  ( 11.50000000000000000, -9.000000000000000000, -5000.000000000000000 ) ) ;
#51 = DIRECTION ( 'NONE',  ( 5.782411586589359611E-16, -1.000000000000000000, 0.0000000000000000000 ) ) ;
#52 = LINE ( 'NONE', #174, #148 ) ;
#53 = AXIS2_PLACEMENT_3D ( 'NONE', #12, #71, #118 ) ;
#54 = ORIENTED_EDGE ( 'NONE', *, *, #105, .T. ) ;
#55 =( NAMED_UNIT ( * ) SI_UNIT ( $, .STERADIAN. ) SOLID_ANGLE_UNIT ( ) );
#56 = EDGE_LOOP ( 'NONE', ( #67, #139, #249, #216 ) ) ;
#57 = CARTESIAN_POINT ( 'NONE',  ( -8.500000000000003553, 0.0000000000000000000, -5000.000000000000000 ) ) ;
#58 = AXIS2_PLACEMENT_3D ( 'NONE', #256, #51, #253 ) ;
#59 = PRESENTATION_STYLE_ASSIGNMENT (( #315 ) ) ;
#60 = SURFACE_SIDE_STYLE ('',( #314 ) ) ;
#61 = VECTOR ( 'NONE', #198, 1000.000000000000000 ) ;
#62 = EDGE_CURVE ( 'NONE', #121, #284, #151, .T. ) ;
#63 =( NAMED_UNIT ( * ) SI_UNIT ( $, .STERADIAN. ) SOLID_ANGLE_UNIT ( ) );
#64 = ORIENTED_EDGE ( 'NONE', *, *, #98, .T. ) ;
#65 = ORIENTED_EDGE ( 'NONE', *, *, #273, .T. ) ;
#66 = DIRECTION ( 'NONE',  ( -1.000000000000000000, 4.641972978766350304E-17, 0.0000000000000000000 ) ) ;
#67 = ORIENTED_EDGE ( 'NONE', *, *, #262, .F. ) ;
#68 = VECTOR ( 'NONE', #15, 1000.000000000000000 ) ;
#69 = DIRECTION ( 'NONE',  ( -1.000000000000000000, 4.641972978766350920E-17, 0.0000000000000000000 ) ) ;
#70 = ORIENTED_EDGE ( 'NONE', *, *, #26, .F. ) ;
#71 = DIRECTION ( 'NONE',  ( 0.0000000000000000000, 0.0000000000000000000, 1.000000000000000000 ) ) ;
#72 = ORIENTED_EDGE ( 'NONE', *, *, #273, .F. ) ;
#73 = CARTESIAN_POINT ( 'NONE',  ( 11.49999999999999822, -9.283945957532701101E-16, 0.0000000000000000000 ) ) ;
#74 = CARTESIAN_POINT ( 'NONE',  ( -11.50000000000000178, 2.999999999999996891, 0.0000000000000000000 ) ) ;
#75 = ADVANCED_FACE ( 'NONE', ( #303 ), #330, .T. ) ;
#76 = DIRECTION ( 'NONE',  ( 7.434529182757743423E-16, -1.000000000000000000, 0.0000000000000000000 ) ) ;
#77 = CARTESIAN_POINT ( 'NONE',  ( -8.500000000000003553, 0.0000000000000000000, -5000.000000000000000 ) ) ;
#78 = VECTOR ( 'NONE', #164, 1000.000000000000000 ) ;
#79 = DIRECTION ( 'NONE',  ( 0.0000000000000000000, -1.000000000000000000, 0.0000000000000000000 ) ) ;
#80 = ORIENTED_EDGE ( 'NONE', *, *, #183, .T. ) ;
#81 = CARTESIAN_POINT ( 'NONE',  ( 11.50000000000000000, -9.000000000000000000, -5000.000000000000000 ) ) ;
#82 = EDGE_CURVE ( 'NONE', #138, #189, #130, .T. ) ;
#83 = AXIS2_PLACEMENT_3D ( 'NONE', #107, #287, #206 ) ;
#84 = FILL_AREA_STYLE ('',( #209 ) ) ;
#85 = EDGE_CURVE ( 'NONE', #323, #121, #331, .T. ) ;
#86 = DIRECTION ( 'NONE',  ( 0.0000000000000000000, 0.0000000000000000000, 1.000000000000000000 ) ) ;
#87 = ORIENTED_EDGE ( 'NONE', *, *, #44, .T. ) ;
#88 = VECTOR ( 'NONE', #150, 1000.000000000000000 ) ;
#89 = ORIENTED_EDGE ( 'NONE', *, *, #110, .T. ) ;
#90 = ORIENTED_EDGE ( 'NONE', *, *, #82, .T. ) ;
#91 = LINE ( 'NONE', #291, #20 ) ;
#92 = ORIENTED_EDGE ( 'NONE', *, *, #220, .T. ) ;
#93 = PRODUCT_RELATED_PRODUCT_CATEGORY ( 'part', '', ( #95 ) ) ;
#94 = CARTESIAN_POINT ( 'NONE',  ( -8.500000000000003553, 0.0000000000000000000, -5000.000000000000000 ) ) ;
#95 = PRODUCT ( 'DFBA3828-BB6E-4916-959F-E4F5E885A771', 'DFBA3828-BB6E-4916-959F-E4F5E885A771', '', ( #279 ) ) ;
#96 = ORIENTED_EDGE ( 'NONE', *, *, #44, .F. ) ;
#97 = SHAPE_DEFINITION_REPRESENTATION ( #309, #182 ) ;
#98 = EDGE_CURVE ( 'NONE', #41, #138, #106, .T. ) ;
#99 = DIRECTION ( 'NONE',  ( 0.0000000000000000000, 0.0000000000000000000, 1.000000000000000000 ) ) ;
#100 =( NAMED_UNIT ( * ) SI_UNIT ( $, .STERADIAN. ) SOLID_ANGLE_UNIT ( ) );
#101 = VECTOR ( 'NONE', #28, 1000.000000000000000 ) ;
#102 = CARTESIAN_POINT ( 'NONE',  ( 8.500000000000003553, -4.000000000000004441, -5000.000000000000000 ) ) ;
#103 = FILL_AREA_STYLE ('',( #246 ) ) ;
#104 = CARTESIAN_POINT ( 'NONE',  ( -11.50000000000000178, 2.999999999999996891, -5000.000000000000000 ) ) ;
#105 = EDGE_CURVE ( 'NONE', #41, #173, #201, .T. ) ;
#106 = LINE ( 'NONE', #102, #245 ) ;
#107 = CARTESIAN_POINT ( 'NONE',  ( -11.50000000000000178, 2.999999999999996891, -5000.000000000000000 ) ) ;
#108 = DIRECTION ( 'NONE',  ( -1.000000000000000000, 0.0000000000000000000, 0.0000000000000000000 ) ) ;
#109 = VERTEX_POINT ( 'NONE', #305 ) ;
#110 = EDGE_CURVE ( 'NONE', #115, #109, #27, .T. ) ;
#111 = AXIS2_PLACEMENT_3D ( 'NONE', #50, #29, #124 ) ;
#112 = CARTESIAN_POINT ( 'NONE',  ( 8.500000000000003553, -4.000000000000004441, 0.0000000000000000000 ) ) ;
#113 = DIRECTION ( 'NONE',  ( 4.641972978766350920E-17, 1.000000000000000000, -0.0000000000000000000 ) ) ;
#114 = CARTESIAN_POINT ( 'NONE',  ( 11.50000000000000000, -9.000000000000000000, 0.0000000000000000000 ) ) ;
#115 = VERTEX_POINT ( 'NONE', #178 ) ;
#116 = VECTOR ( 'NONE', #308, 1000.000000000000000 ) ;
#117 = EDGE_CURVE ( 'NONE', #119, #190, #129, .T. ) ;
#118 = DIRECTION ( 'NONE',  ( 1.000000000000000000, 0.0000000000000000000, -0.0000000000000000000 ) ) ;
#119 = VERTEX_POINT ( 'NONE', #104 ) ;
#120 = DIRECTION ( 'NONE',  ( -1.000000000000000000, 6.938893903907233308E-16, 0.0000000000000000000 ) ) ;
#121 = VERTEX_POINT ( 'NONE', #202 ) ;
#122 = EDGE_CURVE ( 'NONE', #109, #173, #282, .T. ) ;
#123 = CARTESIAN_POINT ( 'NONE',  ( 0.0000000000000000000, 0.0000000000000000000, 0.0000000000000000000 ) ) ;
#124 = DIRECTION ( 'NONE',  ( -1.927470528863119542E-16, 1.000000000000000000, 0.0000000000000000000 ) ) ;
#125 = PRODUCT_DEFINITION_CONTEXT ( 'detailed design', #136, 'design' ) ;
#126 = DIRECTION ( 'NONE',  ( 0.0000000000000000000, 0.0000000000000000000, 1.000000000000000000 ) ) ;
#127 = EDGE_CURVE ( 'NONE', #166, #275, #290, .T. ) ;
#128 = VECTOR ( 'NONE', #192, 1000.000000000000000 ) ;
#129 = LINE ( 'NONE', #230, #155 ) ;
#130 = LINE ( 'NONE', #227, #160 ) ;
#131 = LINE ( 'NONE', #10, #211 ) ;
#132 = AXIS2_PLACEMENT_3D ( 'NONE', #123, #126, #152 ) ;
#133 = LINE ( 'NONE', #45, #128 ) ;
#134 = ORIENTED_EDGE ( 'NONE', *, *, #105, .F. ) ;
#135 = CARTESIAN_POINT ( 'NONE',  ( 8.500000000000000000, -9.000000000000001776, 0.0000000000000000000 ) ) ;
#136 = APPLICATION_CONTEXT ( 'automotive_design' ) ;
#137 = CARTESIAN_POINT ( 'NONE',  ( 11.49999999999999822, -9.283945957532701101E-16, -5000.000000000000000 ) ) ;
#138 = VERTEX_POINT ( 'NONE', #238 ) ;
#139 = ORIENTED_EDGE ( 'NONE', *, *, #302, .F. ) ;
#140 = VECTOR ( 'NONE', #33, 1000.000000000000000 ) ;
#141 = ADVANCED_FACE ( 'NONE', ( #163 ), #34, .T. ) ;
#142 = DIRECTION ( 'NONE',  ( 0.0000000000000000000, 0.0000000000000000000, 1.000000000000000000 ) ) ;
#143 = ORIENTED_EDGE ( 'NONE', *, *, #39, .F. ) ;
#144 = FACE_OUTER_BOUND ( 'NONE', #298, .T. ) ;
#145 = ORIENTED_EDGE ( 'NONE', *, *, #62, .F. ) ;
#146 = EDGE_CURVE ( 'NONE', #166, #258, #237, .T. ) ;
#147 = ORIENTED_EDGE ( 'NONE', *, *, #191, .F. ) ;
#148 = VECTOR ( 'NONE', #232, 1000.000000000000000 ) ;
#149 = PRESENTATION_STYLE_ASSIGNMENT (( #307 ) ) ;
#150 = DIRECTION ( 'NONE',  ( 1.000000000000000000, 5.782411586589358625E-16, 0.0000000000000000000 ) ) ;
#151 = LINE ( 'NONE', #252, #101 ) ;
#152 = DIRECTION ( 'NONE',  ( 1.000000000000000000, 0.0000000000000000000, 0.0000000000000000000 ) ) ;
#153 = CARTESIAN_POINT ( 'NONE',  ( 8.500000000000003553, -4.000000000000004441, -5000.000000000000000 ) ) ;
#154 = ADVANCED_FACE ( 'NONE', ( #162 ), #157, .T. ) ;
#155 = VECTOR ( 'NONE', #334, 1000.000000000000000 ) ;
#156 = PLANE ( 'NONE',  #111 ) ;
#157 = PLANE ( 'NONE',  #266 ) ;
#158 = ORIENTED_EDGE ( 'NONE', *, *, #302, .T. ) ;
#159 = CARTESIAN_POINT ( 'NONE',  ( 11.50000000000000000, -9.000000000000000000, -5000.000000000000000 ) ) ;
#160 = VECTOR ( 'NONE', #1, 1000.000000000000000 ) ;
#161 =( NAMED_UNIT ( * ) PLANE_ANGLE_UNIT ( ) SI_UNIT ( $, .RADIAN. ) );
#162 = FACE_OUTER_BOUND ( 'NONE', #319, .T. ) ;
#163 = FACE_OUTER_BOUND ( 'NONE', #17, .T. ) ;
#164 = DIRECTION ( 'NONE',  ( 0.0000000000000000000, 0.0000000000000000000, 1.000000000000000000 ) ) ;
#165 = ORIENTED_EDGE ( 'NONE', *, *, #117, .T. ) ;
#166 = VERTEX_POINT ( 'NONE', #81 ) ;
#167 = FACE_OUTER_BOUND ( 'NONE', #56, .T. ) ;
#168 = EDGE_LOOP ( 'NONE', ( #292, #134, #64, #90 ) ) ;
#169 = AXIS2_PLACEMENT_3D ( 'NONE', #137, #113, #69 ) ;
#170 = EDGE_CURVE ( 'NONE', #119, #115, #131, .T. ) ;
#171 = DIRECTION ( 'NONE',  ( 1.000000000000000000, 0.0000000000000000000, -0.0000000000000000000 ) ) ;
#172 = EDGE_LOOP ( 'NONE', ( #325, #143, #70, #294, #285, #268, #147, #221 ) ) ;
#173 = VERTEX_POINT ( 'NONE', #112 ) ;
#174 = CARTESIAN_POINT ( 'NONE',  ( 11.49999999999999822, -9.283945957532701101E-16, -5000.000000000000000 ) ) ;
#175 = VECTOR ( 'NONE', #181, 1000.000000000000000 ) ;
#176 =( NAMED_UNIT ( * ) PLANE_ANGLE_UNIT ( ) SI_UNIT ( $, .RADIAN. ) );
#177 = APPLICATION_PROTOCOL_DEFINITION ( 'draft international standard', 'automotive_design', 1998, #136 ) ;
#178 = CARTESIAN_POINT ( 'NONE',  ( -11.50000000000000178, 2.999999999999996891, 0.0000000000000000000 ) ) ;
#179 = CARTESIAN_POINT ( 'NONE',  ( -8.500000000000003553, 0.0000000000000000000, -5000.000000000000000 ) ) ;
#180 = MECHANICAL_DESIGN_GEOMETRIC_PRESENTATION_REPRESENTATION (  '', ( #217 ), #204 ) ;
#181 = DIRECTION ( 'NONE',  ( 1.000000000000000000, 0.0000000000000000000, 0.0000000000000000000 ) ) ;
#182 = ADVANCED_BREP_SHAPE_REPRESENTATION ( 'DFBA3828-BB6E-4916-959F-E4F5E885A771', ( #199, #132 ), #32 ) ;
#183 = EDGE_CURVE ( 'NONE', #138, #166, #234, .T. ) ;
#184 = LINE ( 'NONE', #283, #272 ) ;
#185 = CARTESIAN_POINT ( 'NONE',  ( 8.500000000000000000, -9.000000000000001776, -5000.000000000000000 ) ) ;
#186 = ORIENTED_EDGE ( 'NONE', *, *, #127, .T. ) ;
#187 = DIRECTION ( 'NONE',  ( 1.000000000000000000, -5.782411586589363555E-16, 0.0000000000000000000 ) ) ;
#188 = COLOUR_RGB ( '',0.1254901960784313708, 0.1254901960784313708, 0.1254901960784313708 ) ;
#189 = VERTEX_POINT ( 'NONE', #135 ) ;
#190 = VERTEX_POINT ( 'NONE', #265 ) ;
#191 = EDGE_CURVE ( 'NONE', #190, #41, #207, .T. ) ;
#192 = DIRECTION ( 'NONE',  ( 0.0000000000000000000, 0.0000000000000000000, 1.000000000000000000 ) ) ;
#193 = ORIENTED_EDGE ( 'NONE', *, *, #39, .T. ) ;
#194 = AXIS2_PLACEMENT_3D ( 'NONE', #11, #120, #214 ) ;
#195 = FACE_OUTER_BOUND ( 'NONE', #43, .T. ) ;
#196 = ORIENTED_EDGE ( 'NONE', *, *, #146, .T. ) ;
#197 = ORIENTED_EDGE ( 'NONE', *, *, #170, .F. ) ;
#198 = DIRECTION ( 'NONE',  ( 0.0000000000000000000, 0.0000000000000000000, 1.000000000000000000 ) ) ;
#199 = MANIFOLD_SOLID_BREP ( 'Boss-Extrude1', #224 ) ;
#200 = VECTOR ( 'NONE', #278, 1000.000000000000000 ) ;
#201 = LINE ( 'NONE', #153, #116 ) ;
#202 = CARTESIAN_POINT ( 'NONE',  ( -8.500000000000003553, 0.0000000000000000000, 0.0000000000000000000 ) ) ;
#203 = CARTESIAN_POINT ( 'NONE',  ( -11.49999999999999645, -4.000000000000004441, 0.0000000000000000000 ) ) ;
#204 =( GEOMETRIC_REPRESENTATION_CONTEXT ( 3 ) GLOBAL_UNCERTAINTY_ASSIGNED_CONTEXT ( ( #261 ) ) GLOBAL_UNIT_ASSIGNED_CONTEXT ( ( #23, #176, #100 ) ) REPRESENTATION_CONTEXT ( 'NONE', 'WORKASPACE' ) );
#205 = AXIS2_PLACEMENT_3D ( 'NONE', #248, #142, #171 ) ;
#206 = DIRECTION ( 'NONE',  ( 7.434529182757744409E-16, -1.000000000000000000, 0.0000000000000000000 ) ) ;
#207 = LINE ( 'NONE', #213, #311 ) ;
#208 = ORIENTED_EDGE ( 'NONE', *, *, #122, .F. ) ;
#209 = FILL_AREA_STYLE_COLOUR ( '', #188 ) ;
#210 = PLANE ( 'NONE',  #83 ) ;
#211 = VECTOR ( 'NONE', #236, 1000.000000000000000 ) ;
#212 = ADVANCED_FACE ( 'NONE', ( #2 ), #210, .T. ) ;
#213 = CARTESIAN_POINT ( 'NONE',  ( -11.49999999999999645, -4.000000000000004441, -5000.000000000000000 ) ) ;
#214 = DIRECTION ( 'NONE',  ( -6.938893903907233308E-16, -1.000000000000000000, 0.0000000000000000000 ) ) ;
#215 = PLANE ( 'NONE',  #194 ) ;
#216 = ORIENTED_EDGE ( 'NONE', *, *, #85, .T. ) ;
#217 = STYLED_ITEM ( 'NONE', ( #149 ), #182 ) ;
#218 = APPLICATION_PROTOCOL_DEFINITION ( 'draft international standard', 'automotive_design', 1998, #277 ) ;
#219 = CARTESIAN_POINT ( 'NONE',  ( -8.500000000000001776, 2.999999999999996891, -5000.000000000000000 ) ) ;
#220 = EDGE_CURVE ( 'NONE', #173, #189, #5, .T. ) ;
#221 = ORIENTED_EDGE ( 'NONE', *, *, #117, .F. ) ;
#222 = CARTESIAN_POINT ( 'NONE',  ( -8.500000000000001776, 2.999999999999996891, -5000.000000000000000 ) ) ;
#223 = EDGE_LOOP ( 'NONE', ( #96, #263, #80, #196 ) ) ;
#224 = CLOSED_SHELL ( 'NONE', ( #333, #154, #281, #16, #75, #316, #141, #212, #288, #239 ) ) ;
#225 = CARTESIAN_POINT ( 'NONE',  ( -11.49999999999999645, -4.000000000000004441, -5000.000000000000000 ) ) ;
#226 = EDGE_CURVE ( 'NONE', #284, #115, #184, .T. ) ;
#227 = CARTESIAN_POINT ( 'NONE',  ( 8.500000000000000000, -9.000000000000001776, -5000.000000000000000 ) ) ;
#228 =( GEOMETRIC_REPRESENTATION_CONTEXT ( 3 ) GLOBAL_UNCERTAINTY_ASSIGNED_CONTEXT ( ( #306 ) ) GLOBAL_UNIT_ASSIGNED_CONTEXT ( ( #35, #161, #55 ) ) REPRESENTATION_CONTEXT ( 'NONE', 'WORKASPACE' ) );
#229 = EDGE_CURVE ( 'NONE', #276, #284, #133, .T. ) ;
#230 = CARTESIAN_POINT ( 'NONE',  ( -11.50000000000000178, 2.999999999999996891, -5000.000000000000000 ) ) ;
#231 = SURFACE_STYLE_FILL_AREA ( #103 ) ;
#232 = DIRECTION ( 'NONE',  ( -1.000000000000000000, 4.641972978766350304E-17, 0.0000000000000000000 ) ) ;
#233 = EDGE_CURVE ( 'NONE', #276, #119, #40, .T. ) ;
#234 = LINE ( 'NONE', #185, #332 ) ;
#235 = ORIENTED_EDGE ( 'NONE', *, *, #262, .T. ) ;
#236 = DIRECTION ( 'NONE',  ( 0.0000000000000000000, 0.0000000000000000000, 1.000000000000000000 ) ) ;
#237 = LINE ( 'NONE', #159, #140 ) ;
#238 = CARTESIAN_POINT ( 'NONE',  ( 8.500000000000000000, -9.000000000000001776, -5000.000000000000000 ) ) ;
#239 = ADVANCED_FACE ( 'NONE', ( #144 ), #269, .T. ) ;
#240 = PLANE ( 'NONE',  #205 ) ;
#241 = PRODUCT_DEFINITION ( 'UNKNOWN', '', #3, #125 ) ;
#242 = ORIENTED_EDGE ( 'NONE', *, *, #191, .T. ) ;
#243 =( NAMED_UNIT ( * ) PLANE_ANGLE_UNIT ( ) SI_UNIT ( $, .RADIAN. ) );
#244 = ORIENTED_EDGE ( 'NONE', *, *, #229, .F. ) ;
#245 = VECTOR ( 'NONE', #254, 1000.000000000000000 ) ;
#246 = FILL_AREA_STYLE_COLOUR ( '', #320 ) ;
#247 = ORIENTED_EDGE ( 'NONE', *, *, #226, .F. ) ;
#248 = CARTESIAN_POINT ( 'NONE',  ( 0.0000000000000000000, 0.0000000000000000000, -5000.000000000000000 ) ) ;
#249 = ORIENTED_EDGE ( 'NONE', *, *, #26, .T. ) ;
#250 = ORIENTED_EDGE ( 'NONE', *, *, #226, .T. ) ;
#251 = VECTOR ( 'NONE', #312, 1000.000000000000000 ) ;
#252 = CARTESIAN_POINT ( 'NONE',  ( -8.500000000000003553, 0.0000000000000000000, 0.0000000000000000000 ) ) ;
#253 = DIRECTION ( 'NONE',  ( 1.000000000000000000, 5.782411586589359611E-16, 0.0000000000000000000 ) ) ;
#254 = DIRECTION ( 'NONE',  ( -6.938893903907233308E-16, -1.000000000000000000, 0.0000000000000000000 ) ) ;
#255 = MECHANICAL_DESIGN_GEOMETRIC_PRESENTATION_REPRESENTATION (  '', ( #4 ), #228 ) ;
#256 = CARTESIAN_POINT ( 'NONE',  ( 8.500000000000000000, -9.000000000000001776, -5000.000000000000000 ) ) ;
#257 = DIRECTION ( 'NONE',  ( 1.000000000000000000, 0.0000000000000000000, 0.0000000000000000000 ) ) ;
#258 = VERTEX_POINT ( 'NONE', #36 ) ;
#259 = VECTOR ( 'NONE', #99, 1000.000000000000000 ) ;
#260 = CARTESIAN_POINT ( 'NONE',  ( -11.49999999999999645, -4.000000000000004441, -5000.000000000000000 ) ) ;
#261 = UNCERTAINTY_MEASURE_WITH_UNIT (LENGTH_MEASURE( 1.000000000000000082E-05 ), #23, 'distance_accuracy_value', 'NONE');
#262 = EDGE_CURVE ( 'NONE', #14, #121, #91, .T. ) ;
#263 = ORIENTED_EDGE ( 'NONE', *, *, #82, .F. ) ;
#264 = DIRECTION ( 'NONE',  ( 1.000000000000000000, 5.782411586589358625E-16, 0.0000000000000000000 ) ) ;
#265 = CARTESIAN_POINT ( 'NONE',  ( -11.49999999999999645, -4.000000000000004441, -5000.000000000000000 ) ) ;
#266 = AXIS2_PLACEMENT_3D ( 'NONE', #57, #187, #7 ) ;
#267 = LINE ( 'NONE', #293, #78 ) ;
#268 = ORIENTED_EDGE ( 'NONE', *, *, #98, .F. ) ;
#269 = PLANE ( 'NONE',  #53 ) ;
#270 = ORIENTED_EDGE ( 'NONE', *, *, #229, .T. ) ;
#271 = PLANE ( 'NONE',  #48 ) ;
#272 = VECTOR ( 'NONE', #108, 1000.000000000000000 ) ;
#273 = EDGE_CURVE ( 'NONE', #258, #14, #295, .T. ) ;
#274 = FACE_OUTER_BOUND ( 'NONE', #168, .T. ) ;
#275 = VERTEX_POINT ( 'NONE', #324 ) ;
#276 = VERTEX_POINT ( 'NONE', #222 ) ;
#277 = APPLICATION_CONTEXT ( 'automotive_design' ) ;
#278 = DIRECTION ( 'NONE',  ( 5.782411586589362569E-16, 1.000000000000000000, 0.0000000000000000000 ) ) ;
#279 = PRODUCT_CONTEXT ( 'NONE', #277, 'mechanical' ) ;
#280 = LINE ( 'NONE', #77, #200 ) ;
#281 = ADVANCED_FACE ( 'NONE', ( #167 ), #297, .T. ) ;
#282 = LINE ( 'NONE', #203, #175 ) ;
#283 = CARTESIAN_POINT ( 'NONE',  ( -8.500000000000001776, 2.999999999999996891, 0.0000000000000000000 ) ) ;
#284 = VERTEX_POINT ( 'NONE', #321 ) ;
#285 = ORIENTED_EDGE ( 'NONE', *, *, #183, .F. ) ;
#286 = AXIS2_PLACEMENT_3D ( 'NONE', #260, #79, #6 ) ;
#287 = DIRECTION ( 'NONE',  ( -1.000000000000000000, -7.434529182757744409E-16, 0.0000000000000000000 ) ) ;
#288 = ADVANCED_FACE ( 'NONE', ( #42 ), #240, .F. ) ;
#289 = CARTESIAN_POINT ( 'NONE',  ( 11.50000000000000000, -9.000000000000000000, -5000.000000000000000 ) ) ;
#290 = LINE ( 'NONE', #289, #299 ) ;
#291 = CARTESIAN_POINT ( 'NONE',  ( 11.49999999999999822, -9.283945957532701101E-16, 0.0000000000000000000 ) ) ;
#292 = ORIENTED_EDGE ( 'NONE', *, *, #220, .F. ) ;
#293 = CARTESIAN_POINT ( 'NONE',  ( 11.49999999999999822, -9.283945957532701101E-16, -5000.000000000000000 ) ) ;
#294 = ORIENTED_EDGE ( 'NONE', *, *, #127, .F. ) ;
#295 = LINE ( 'NONE', #114, #9 ) ;
#296 = ORIENTED_EDGE ( 'NONE', *, *, #170, .T. ) ;
#297 = PLANE ( 'NONE',  #169 ) ;
#298 = EDGE_LOOP ( 'NONE', ( #250, #89, #47, #92, #87, #65, #235, #301 ) ) ;
#299 = VECTOR ( 'NONE', #317, 1000.000000000000000 ) ;
#300 = CARTESIAN_POINT ( 'NONE',  ( -8.500000000000001776, 2.999999999999996891, -5000.000000000000000 ) ) ;
#301 = ORIENTED_EDGE ( 'NONE', *, *, #62, .T. ) ;
#302 = EDGE_CURVE ( 'NONE', #275, #14, #267, .T. ) ;
#303 = FACE_OUTER_BOUND ( 'NONE', #223, .T. ) ;
#304 = VECTOR ( 'NONE', #76, 1000.000000000000000 ) ;
#305 = CARTESIAN_POINT ( 'NONE',  ( -11.49999999999999645, -4.000000000000004441, 0.0000000000000000000 ) ) ;
#306 = UNCERTAINTY_MEASURE_WITH_UNIT (LENGTH_MEASURE( 1.000000000000000082E-05 ), #35, 'distance_accuracy_value', 'NONE');
#307 = SURFACE_STYLE_USAGE ( .BOTH. , #328 ) ;
#308 = DIRECTION ( 'NONE',  ( 0.0000000000000000000, 0.0000000000000000000, 1.000000000000000000 ) ) ;
#309 = PRODUCT_DEFINITION_SHAPE ( 'NONE', 'NONE',  #241 ) ;
#310 = LINE ( 'NONE', #225, #259 ) ;
#311 = VECTOR ( 'NONE', #257, 1000.000000000000000 ) ;
#312 = DIRECTION ( 'NONE',  ( -6.938893903907233308E-16, -1.000000000000000000, 0.0000000000000000000 ) ) ;
#313 = CARTESIAN_POINT ( 'NONE',  ( 8.500000000000003553, -4.000000000000004441, 0.0000000000000000000 ) ) ;
#314 = SURFACE_STYLE_FILL_AREA ( #84 ) ;
#315 = SURFACE_STYLE_USAGE ( .BOTH. , #60 ) ;
#316 = ADVANCED_FACE ( 'NONE', ( #274 ), #215, .T. ) ;
#317 = DIRECTION ( 'NONE',  ( -1.927470528863119542E-16, 1.000000000000000000, 0.0000000000000000000 ) ) ;
#318 = DIRECTION ( 'NONE',  ( 0.0000000000000000000, 1.000000000000000000, -0.0000000000000000000 ) ) ;
#319 = EDGE_LOOP ( 'NONE', ( #145, #8, #193, #270 ) ) ;
#320 = COLOUR_RGB ( '',0.1254901960784313708, 0.1254901960784313708, 0.1254901960784313708 ) ;
#321 = CARTESIAN_POINT ( 'NONE',  ( -8.500000000000001776, 2.999999999999996891, 0.0000000000000000000 ) ) ;
#322 = ORIENTED_EDGE ( 'NONE', *, *, #233, .T. ) ;
#323 = VERTEX_POINT ( 'NONE', #94 ) ;
#324 = CARTESIAN_POINT ( 'NONE',  ( 11.49999999999999822, -9.283945957532701101E-16, -5000.000000000000000 ) ) ;
#325 = ORIENTED_EDGE ( 'NONE', *, *, #233, .F. ) ;
#326 = ORIENTED_EDGE ( 'NONE', *, *, #30, .F. ) ;
#327 = PRESENTATION_LAYER_ASSIGNMENT (  '', '', ( #217 ) ) ;
#328 = SURFACE_SIDE_STYLE ('',( #231 ) ) ;
#329 = CARTESIAN_POINT ( 'NONE',  ( 8.500000000000000000, -9.000000000000001776, 0.0000000000000000000 ) ) ;
#330 = PLANE ( 'NONE',  #58 ) ;
#331 = LINE ( 'NONE', #179, #61 ) ;
#332 = VECTOR ( 'NONE', #264, 1000.000000000000000 ) ;
#333 = ADVANCED_FACE ( 'NONE', ( #195 ), #271, .T. ) ;
#334 = DIRECTION ( 'NONE',  ( 7.434529182757743423E-16, -1.000000000000000000, 0.0000000000000000000 ) ) ;
ENDSEC;
END-ISO-10303-21;
