ISO-10303-21;
HEADER;
FILE_DESCRIPTION (( 'STEP AP214' ),
    '1' );
FILE_NAME ('2A7FB746-3B64-403E-8BFA-BE93DE4BD617.STEP',
    '2023-08-01T12:49:50',
    ( '' ),
    ( '' ),
    'SwSTEP 2.0',
    'SolidWorks 2022',
    '' );
FILE_SCHEMA (( 'AUTOMOTIVE_DESIGN' ));
ENDSEC;

DATA;
#1 = DIRECTION ( 'NONE',  ( 1.000000000000000000, 0.0000000000000000000, 0.0000000000000000000 ) ) ;
#2 = FILL_AREA_STYLE_COLOUR ( '', #188 ) ;
#3 = FILL_AREA_STYLE_COLOUR ( '', #145 ) ;
#4 = MECHANICAL_DESIGN_GEOMETRIC_PRESENTATION_REPRESENTATION (  '', ( #183 ), #178 ) ;
#5 = SURFACE_STYLE_USAGE ( .BOTH. , #78 ) ;
#6 = ORIENTED_EDGE ( 'NONE', *, *, #124, .F. ) ;
#7 = ORIENTED_EDGE ( 'NONE', *, *, #21, .F. ) ;
#8 = ORIENTED_EDGE ( 'NONE', *, *, #40, .F. ) ;
#9 = PRODUCT_DEFINITION_CONTEXT ( 'detailed design', #110, 'design' ) ;
#10 = AXIS2_PLACEMENT_3D ( 'NONE', #146, #180, #126 ) ;
#11 = VECTOR ( 'NONE', #119, 1000.000000000000000 ) ;
#12 = ORIENTED_EDGE ( 'NONE', *, *, #156, .F. ) ;
#13 = DIRECTION ( 'NONE',  ( -2.312964634635744239E-15, 1.000000000000000000, -0.0000000000000000000 ) ) ;
#14 = CARTESIAN_POINT ( 'NONE',  ( 0.0000000000000000000, 0.0000000000000000000, 0.0000000000000000000 ) ) ;
#15 = DIRECTION ( 'NONE',  ( 0.0000000000000000000, 0.0000000000000000000, 1.000000000000000000 ) ) ;
#16 = EDGE_CURVE ( 'NONE', #167, #38, #59, .T. ) ;
#17 = FACE_OUTER_BOUND ( 'NONE', #83, .T. ) ;
#18 = VECTOR ( 'NONE', #155, 1000.000000000000000 ) ;
#19 = PLANE ( 'NONE',  #122 ) ;
#20 =( LENGTH_UNIT ( ) NAMED_UNIT ( * ) SI_UNIT ( .MILLI., .METRE. ) );
#21 = EDGE_CURVE ( 'NONE', #167, #195, #131, .T. ) ;
#22 = SURFACE_STYLE_FILL_AREA ( #147 ) ;
#23 = PRODUCT_RELATED_PRODUCT_CATEGORY ( 'part', '', ( #158 ) ) ;
#24 = VERTEX_POINT ( 'NONE', #150 ) ;
#25 = VECTOR ( 'NONE', #176, 1000.000000000000000 ) ;
#26 = ORIENTED_EDGE ( 'NONE', *, *, #175, .T. ) ;
#27 = EDGE_LOOP ( 'NONE', ( #181, #164, #197, #54 ) ) ;
#28 = PLANE ( 'NONE',  #82 ) ;
#29 = VERTEX_POINT ( 'NONE', #57 ) ;
#30 =( LENGTH_UNIT ( ) NAMED_UNIT ( * ) SI_UNIT ( .MILLI., .METRE. ) );
#31 = LINE ( 'NONE', #89, #104 ) ;
#32 = DIRECTION ( 'NONE',  ( 1.000000000000000000, 1.228762462150238276E-16, 0.0000000000000000000 ) ) ;
#33 = LINE ( 'NONE', #86, #18 ) ;
#34 = DIRECTION ( 'NONE',  ( -1.000000000000000000, 0.0000000000000000000, 0.0000000000000000000 ) ) ;
#35 = PRODUCT_CONTEXT ( 'NONE', #120, 'mechanical' ) ;
#36 =( GEOMETRIC_REPRESENTATION_CONTEXT ( 3 ) GLOBAL_UNCERTAINTY_ASSIGNED_CONTEXT ( ( #41 ) ) GLOBAL_UNIT_ASSIGNED_CONTEXT ( ( #159, #143, #51 ) ) REPRESENTATION_CONTEXT ( 'NONE', 'WORKASPACE' ) );
#37 = ORIENTED_EDGE ( 'NONE', *, *, #156, .T. ) ;
#38 = VERTEX_POINT ( 'NONE', #42 ) ;
#39 = VECTOR ( 'NONE', #15, 1000.000000000000000 ) ;
#40 = EDGE_CURVE ( 'NONE', #53, #29, #96, .T. ) ;
#41 = UNCERTAINTY_MEASURE_WITH_UNIT (LENGTH_MEASURE( 1.000000000000000082E-05 ), #159, 'distance_accuracy_value', 'NONE');
#42 = CARTESIAN_POINT ( 'NONE',  ( -15.00000000000000000, -1.499999999999999778, 0.0000000000000000000 ) ) ;
#43 = ORIENTED_EDGE ( 'NONE', *, *, #92, .F. ) ;
#44 = CARTESIAN_POINT ( 'NONE',  ( -15.00000000000000000, -1.499999999999999778, -5000.000000000000000 ) ) ;
#45 = AXIS2_PLACEMENT_3D ( 'NONE', #14, #136, #1 ) ;
#46 =( NAMED_UNIT ( * ) PLANE_ANGLE_UNIT ( ) SI_UNIT ( $, .RADIAN. ) );
#47 = CARTESIAN_POINT ( 'NONE',  ( -15.00000000000000000, 1.500000000000000222, -5000.000000000000000 ) ) ;
#48 = PLANE ( 'NONE',  #123 ) ;
#49 = ADVANCED_FACE ( 'NONE', ( #186 ), #28, .T. ) ;
#50 = DIRECTION ( 'NONE',  ( 0.0000000000000000000, 0.0000000000000000000, 1.000000000000000000 ) ) ;
#51 =( NAMED_UNIT ( * ) SI_UNIT ( $, .STERADIAN. ) SOLID_ANGLE_UNIT ( ) );
#52 = VECTOR ( 'NONE', #121, 1000.000000000000000 ) ;
#53 = VERTEX_POINT ( 'NONE', #191 ) ;
#54 = ORIENTED_EDGE ( 'NONE', *, *, #92, .T. ) ;
#55 = ORIENTED_EDGE ( 'NONE', *, *, #21, .T. ) ;
#56 = AXIS2_PLACEMENT_3D ( 'NONE', #127, #50, #108 ) ;
#57 = CARTESIAN_POINT ( 'NONE',  ( 15.00000000000000000, 1.500000000000001998, 0.0000000000000000000 ) ) ;
#58 = UNCERTAINTY_MEASURE_WITH_UNIT (LENGTH_MEASURE( 1.000000000000000082E-05 ), #30, 'distance_accuracy_value', 'NONE');
#59 = LINE ( 'NONE', #69, #116 ) ;
#60 = CARTESIAN_POINT ( 'NONE',  ( 15.00000000000000000, 1.500000000000001998, 0.0000000000000000000 ) ) ;
#61 = PRODUCT_DEFINITION_FORMATION_WITH_SPECIFIED_SOURCE ( 'ANY', '', #158, .NOT_KNOWN. ) ;
#62 = LINE ( 'NONE', #134, #157 ) ;
#63 = CARTESIAN_POINT ( 'NONE',  ( 15.00000000000000711, -1.499999999999996225, -5000.000000000000000 ) ) ;
#64 = SURFACE_SIDE_STYLE ('',( #172 ) ) ;
#65 = FACE_OUTER_BOUND ( 'NONE', #27, .T. ) ;
#66 = VECTOR ( 'NONE', #13, 1000.000000000000000 ) ;
#67 = STYLED_ITEM ( 'NONE', ( #173 ), #118 ) ;
#68 = ORIENTED_EDGE ( 'NONE', *, *, #115, .F. ) ;
#69 = CARTESIAN_POINT ( 'NONE',  ( -15.00000000000000000, -1.499999999999999778, -5000.000000000000000 ) ) ;
#70 = DIRECTION ( 'NONE',  ( 1.000000000000000000, 1.228762462150238276E-16, 0.0000000000000000000 ) ) ;
#71 = DIRECTION ( 'NONE',  ( 1.000000000000000000, 2.312964634635744239E-15, -0.0000000000000000000 ) ) ;
#72 = DIRECTION ( 'NONE',  ( -1.000000000000000000, -5.782411586589357392E-17, -0.0000000000000000000 ) ) ;
#73 = DIRECTION ( 'NONE',  ( 0.0000000000000000000, -1.000000000000000000, 0.0000000000000000000 ) ) ;
#74 =( NAMED_UNIT ( * ) SI_UNIT ( $, .STERADIAN. ) SOLID_ANGLE_UNIT ( ) );
#75 = CARTESIAN_POINT ( 'NONE',  ( 15.00000000000000000, 1.500000000000001998, -5000.000000000000000 ) ) ;
#76 = CARTESIAN_POINT ( 'NONE',  ( 15.00000000000000711, -1.499999999999996225, -5000.000000000000000 ) ) ;
#77 = CARTESIAN_POINT ( 'NONE',  ( -15.00000000000000000, 1.500000000000000222, -5000.000000000000000 ) ) ;
#78 = SURFACE_SIDE_STYLE ('',( #22 ) ) ;
#79 = PLANE ( 'NONE',  #10 ) ;
#80 = EDGE_CURVE ( 'NONE', #38, #184, #33, .T. ) ;
#81 = ORIENTED_EDGE ( 'NONE', *, *, #107, .F. ) ;
#82 = AXIS2_PLACEMENT_3D ( 'NONE', #84, #132, #101 ) ;
#83 = EDGE_LOOP ( 'NONE', ( #68, #12, #93, #151 ) ) ;
#84 = CARTESIAN_POINT ( 'NONE',  ( -15.00000000000000000, 1.500000000000000222, -5000.000000000000000 ) ) ;
#85 = ADVANCED_FACE ( 'NONE', ( #65 ), #90, .T. ) ;
#86 = CARTESIAN_POINT ( 'NONE',  ( -15.00000000000000000, -1.499999999999999778, 0.0000000000000000000 ) ) ;
#87 = LINE ( 'NONE', #63, #11 ) ;
#88 = PRESENTATION_LAYER_ASSIGNMENT (  '', '', ( #183 ) ) ;
#89 = CARTESIAN_POINT ( 'NONE',  ( -15.00000000000000000, 1.500000000000000222, -5000.000000000000000 ) ) ;
#90 = PLANE ( 'NONE',  #45 ) ;
#91 = PRESENTATION_STYLE_ASSIGNMENT (( #5 ) ) ;
#92 = EDGE_CURVE ( 'NONE', #29, #94, #117, .T. ) ;
#93 = ORIENTED_EDGE ( 'NONE', *, *, #165, .T. ) ;
#94 = VERTEX_POINT ( 'NONE', #200 ) ;
#95 = ORIENTED_EDGE ( 'NONE', *, *, #124, .T. ) ;
#96 = LINE ( 'NONE', #168, #98 ) ;
#97 = ORIENTED_EDGE ( 'NONE', *, *, #165, .F. ) ;
#98 = VECTOR ( 'NONE', #193, 1000.000000000000000 ) ;
#99 = CARTESIAN_POINT ( 'NONE',  ( 15.00000000000000000, 1.500000000000001998, -5000.000000000000000 ) ) ;
#100 = CARTESIAN_POINT ( 'NONE',  ( -15.00000000000000000, 1.500000000000000222, 0.0000000000000000000 ) ) ;
#101 = DIRECTION ( 'NONE',  ( -1.000000000000000000, -5.782411586589357392E-17, 0.0000000000000000000 ) ) ;
#102 = LINE ( 'NONE', #47, #39 ) ;
#103 = DIRECTION ( 'NONE',  ( 0.0000000000000000000, 0.0000000000000000000, 1.000000000000000000 ) ) ;
#104 = VECTOR ( 'NONE', #154, 1000.000000000000000 ) ;
#105 = FACE_OUTER_BOUND ( 'NONE', #111, .T. ) ;
#106 = EDGE_CURVE ( 'NONE', #53, #24, #125, .T. ) ;
#107 = EDGE_CURVE ( 'NONE', #184, #29, #138, .T. ) ;
#108 = DIRECTION ( 'NONE',  ( 1.000000000000000000, 0.0000000000000000000, 0.0000000000000000000 ) ) ;
#109 =( GEOMETRIC_REPRESENTATION_CONTEXT ( 3 ) GLOBAL_UNCERTAINTY_ASSIGNED_CONTEXT ( ( #58 ) ) GLOBAL_UNIT_ASSIGNED_CONTEXT ( ( #30, #46, #74 ) ) REPRESENTATION_CONTEXT ( 'NONE', 'WORKASPACE' ) );
#110 = APPLICATION_CONTEXT ( 'automotive_design' ) ;
#111 = EDGE_LOOP ( 'NONE', ( #97, #130, #170, #7 ) ) ;
#112 = EDGE_LOOP ( 'NONE', ( #198, #185, #55, #95 ) ) ;
#113 = ORIENTED_EDGE ( 'NONE', *, *, #106, .T. ) ;
#114 = DIRECTION ( 'NONE',  ( 1.228762462150238276E-16, -1.000000000000000000, 0.0000000000000000000 ) ) ;
#115 = EDGE_CURVE ( 'NONE', #94, #38, #62, .T. ) ;
#116 = VECTOR ( 'NONE', #149, 1000.000000000000000 ) ;
#117 = LINE ( 'NONE', #100, #141 ) ;
#118 = MANIFOLD_SOLID_BREP ( 'Boss-Extrude1', #201 ) ;
#119 = DIRECTION ( 'NONE',  ( 0.0000000000000000000, 0.0000000000000000000, 1.000000000000000000 ) ) ;
#120 = APPLICATION_CONTEXT ( 'automotive_design' ) ;
#121 = DIRECTION ( 'NONE',  ( -1.000000000000000000, -5.782411586589357392E-17, -0.0000000000000000000 ) ) ;
#122 = AXIS2_PLACEMENT_3D ( 'NONE', #77, #34, #103 ) ;
#123 = AXIS2_PLACEMENT_3D ( 'NONE', #75, #71, #152 ) ;
#124 = EDGE_CURVE ( 'NONE', #195, #184, #87, .T. ) ;
#125 = LINE ( 'NONE', #189, #52 ) ;
#126 = DIRECTION ( 'NONE',  ( 1.000000000000000000, 0.0000000000000000000, 0.0000000000000000000 ) ) ;
#127 = CARTESIAN_POINT ( 'NONE',  ( 0.0000000000000000000, 0.0000000000000000000, 0.0000000000000000000 ) ) ;
#128 = APPLICATION_PROTOCOL_DEFINITION ( 'draft international standard', 'automotive_design', 1998, #110 ) ;
#129 = ORIENTED_EDGE ( 'NONE', *, *, #40, .T. ) ;
#130 = ORIENTED_EDGE ( 'NONE', *, *, #106, .F. ) ;
#131 = LINE ( 'NONE', #196, #179 ) ;
#132 = DIRECTION ( 'NONE',  ( -5.782411586589357392E-17, 1.000000000000000000, 0.0000000000000000000 ) ) ;
#133 = PLANE ( 'NONE',  #139 ) ;
#134 = CARTESIAN_POINT ( 'NONE',  ( -15.00000000000000000, 1.500000000000000222, 0.0000000000000000000 ) ) ;
#135 = PRESENTATION_LAYER_ASSIGNMENT (  '', '', ( #67 ) ) ;
#136 = DIRECTION ( 'NONE',  ( -0.0000000000000000000, 0.0000000000000000000, 1.000000000000000000 ) ) ;
#137 = LINE ( 'NONE', #99, #66 ) ;
#138 = LINE ( 'NONE', #60, #25 ) ;
#139 = AXIS2_PLACEMENT_3D ( 'NONE', #199, #114, #32 ) ;
#140 = PRODUCT_DEFINITION_SHAPE ( 'NONE', 'NONE',  #163 ) ;
#141 = VECTOR ( 'NONE', #72, 1000.000000000000000 ) ;
#142 = SHAPE_DEFINITION_REPRESENTATION ( #140, #169 ) ;
#143 =( NAMED_UNIT ( * ) PLANE_ANGLE_UNIT ( ) SI_UNIT ( $, .RADIAN. ) );
#144 =( NAMED_UNIT ( * ) SI_UNIT ( $, .STERADIAN. ) SOLID_ANGLE_UNIT ( ) );
#145 = COLOUR_RGB ( '',0.0000000000000000000, 1.000000000000000000, 0.0000000000000000000 ) ;
#146 = CARTESIAN_POINT ( 'NONE',  ( 0.0000000000000000000, 0.0000000000000000000, -5000.000000000000000 ) ) ;
#147 = FILL_AREA_STYLE ('',( #3 ) ) ;
#148 = ADVANCED_FACE ( 'NONE', ( #190 ), #48, .T. ) ;
#149 = DIRECTION ( 'NONE',  ( 0.0000000000000000000, 0.0000000000000000000, 1.000000000000000000 ) ) ;
#150 = CARTESIAN_POINT ( 'NONE',  ( -15.00000000000000000, 1.500000000000000222, -5000.000000000000000 ) ) ;
#151 = ORIENTED_EDGE ( 'NONE', *, *, #16, .T. ) ;
#152 = DIRECTION ( 'NONE',  ( -2.312964634635744239E-15, 1.000000000000000000, 0.0000000000000000000 ) ) ;
#153 = FILL_AREA_STYLE ('',( #2 ) ) ;
#154 = DIRECTION ( 'NONE',  ( 0.0000000000000000000, -1.000000000000000000, 0.0000000000000000000 ) ) ;
#155 = DIRECTION ( 'NONE',  ( 1.000000000000000000, 1.228762462150238276E-16, 0.0000000000000000000 ) ) ;
#156 = EDGE_CURVE ( 'NONE', #24, #94, #102, .T. ) ;
#157 = VECTOR ( 'NONE', #73, 1000.000000000000000 ) ;
#158 = PRODUCT ( '2A7FB746-3B64-403E-8BFA-BE93DE4BD617', '2A7FB746-3B64-403E-8BFA-BE93DE4BD617', '', ( #35 ) ) ;
#159 =( LENGTH_UNIT ( ) NAMED_UNIT ( * ) SI_UNIT ( .MILLI., .METRE. ) );
#160 = CARTESIAN_POINT ( 'NONE',  ( 15.00000000000000711, -1.499999999999996225, 0.0000000000000000000 ) ) ;
#161 = UNCERTAINTY_MEASURE_WITH_UNIT (LENGTH_MEASURE( 1.000000000000000082E-05 ), #20, 'distance_accuracy_value', 'NONE');
#162 = ADVANCED_FACE ( 'NONE', ( #174 ), #133, .T. ) ;
#163 = PRODUCT_DEFINITION ( 'UNKNOWN', '', #61, #9 ) ;
#164 = ORIENTED_EDGE ( 'NONE', *, *, #80, .T. ) ;
#165 = EDGE_CURVE ( 'NONE', #24, #167, #31, .T. ) ;
#166 = EDGE_LOOP ( 'NONE', ( #43, #8, #113, #37 ) ) ;
#167 = VERTEX_POINT ( 'NONE', #44 ) ;
#168 = CARTESIAN_POINT ( 'NONE',  ( 15.00000000000000000, 1.500000000000001998, -5000.000000000000000 ) ) ;
#169 = ADVANCED_BREP_SHAPE_REPRESENTATION ( '2A7FB746-3B64-403E-8BFA-BE93DE4BD617', ( #118, #56 ), #36 ) ;
#170 = ORIENTED_EDGE ( 'NONE', *, *, #175, .F. ) ;
#171 = MECHANICAL_DESIGN_GEOMETRIC_PRESENTATION_REPRESENTATION (  '', ( #67 ), #109 ) ;
#172 = SURFACE_STYLE_FILL_AREA ( #153 ) ;
#173 = PRESENTATION_STYLE_ASSIGNMENT (( #202 ) ) ;
#174 = FACE_OUTER_BOUND ( 'NONE', #112, .T. ) ;
#175 = EDGE_CURVE ( 'NONE', #195, #53, #137, .T. ) ;
#176 = DIRECTION ( 'NONE',  ( -2.312964634635744239E-15, 1.000000000000000000, -0.0000000000000000000 ) ) ;
#177 = APPLICATION_PROTOCOL_DEFINITION ( 'draft international standard', 'automotive_design', 1998, #120 ) ;
#178 =( GEOMETRIC_REPRESENTATION_CONTEXT ( 3 ) GLOBAL_UNCERTAINTY_ASSIGNED_CONTEXT ( ( #161 ) ) GLOBAL_UNIT_ASSIGNED_CONTEXT ( ( #20, #192, #144 ) ) REPRESENTATION_CONTEXT ( 'NONE', 'WORKASPACE' ) );
#179 = VECTOR ( 'NONE', #70, 1000.000000000000000 ) ;
#180 = DIRECTION ( 'NONE',  ( -0.0000000000000000000, 0.0000000000000000000, 1.000000000000000000 ) ) ;
#181 = ORIENTED_EDGE ( 'NONE', *, *, #115, .T. ) ;
#182 = EDGE_LOOP ( 'NONE', ( #81, #6, #26, #129 ) ) ;
#183 = STYLED_ITEM ( 'NONE', ( #91 ), #169 ) ;
#184 = VERTEX_POINT ( 'NONE', #160 ) ;
#185 = ORIENTED_EDGE ( 'NONE', *, *, #16, .F. ) ;
#186 = FACE_OUTER_BOUND ( 'NONE', #166, .T. ) ;
#187 = ADVANCED_FACE ( 'NONE', ( #105 ), #79, .F. ) ;
#188 = COLOUR_RGB ( '',0.0000000000000000000, 1.000000000000000000, 0.0000000000000000000 ) ;
#189 = CARTESIAN_POINT ( 'NONE',  ( -15.00000000000000000, 1.500000000000000222, -5000.000000000000000 ) ) ;
#190 = FACE_OUTER_BOUND ( 'NONE', #182, .T. ) ;
#191 = CARTESIAN_POINT ( 'NONE',  ( 15.00000000000000000, 1.500000000000001998, -5000.000000000000000 ) ) ;
#192 =( NAMED_UNIT ( * ) PLANE_ANGLE_UNIT ( ) SI_UNIT ( $, .RADIAN. ) );
#193 = DIRECTION ( 'NONE',  ( 0.0000000000000000000, 0.0000000000000000000, 1.000000000000000000 ) ) ;
#194 = ADVANCED_FACE ( 'NONE', ( #17 ), #19, .T. ) ;
#195 = VERTEX_POINT ( 'NONE', #76 ) ;
#196 = CARTESIAN_POINT ( 'NONE',  ( -15.00000000000000000, -1.499999999999999778, -5000.000000000000000 ) ) ;
#197 = ORIENTED_EDGE ( 'NONE', *, *, #107, .T. ) ;
#198 = ORIENTED_EDGE ( 'NONE', *, *, #80, .F. ) ;
#199 = CARTESIAN_POINT ( 'NONE',  ( -15.00000000000000000, -1.499999999999999778, -5000.000000000000000 ) ) ;
#200 = CARTESIAN_POINT ( 'NONE',  ( -15.00000000000000000, 1.500000000000000222, 0.0000000000000000000 ) ) ;
#201 = CLOSED_SHELL ( 'NONE', ( #194, #49, #148, #162, #187, #85 ) ) ;
#202 = SURFACE_STYLE_USAGE ( .BOTH. , #64 ) ;
ENDSEC;
END-ISO-10303-21;
