ISO-10303-21;
HEADER;
FILE_DESCRIPTION (( 'STEP AP214' ),
    '1' );
FILE_NAME ('08D65BD3-67BA-4DF9-9B7D-63D4528C3A41.STEP',
    '2023-08-01T12:48:35',
    ( '' ),
    ( '' ),
    'SwSTEP 2.0',
    'SolidWorks 2022',
    '' );
FILE_SCHEMA (( 'AUTOMOTIVE_DESIGN' ));
ENDSEC;

DATA;
#1 = VECTOR ( 'NONE', #190, 1000.000000000000000 ) ;
#2 = CARTESIAN_POINT ( 'NONE',  ( -10.00000000000000178, 2.500000000000000444, 0.0000000000000000000 ) ) ;
#3 = UNCERTAINTY_MEASURE_WITH_UNIT (LENGTH_MEASURE( 1.000000000000000082E-05 ), #78, 'distance_accuracy_value', 'NONE');
#4 = FACE_OUTER_BOUND ( 'NONE', #83, .T. ) ;
#5 = CARTESIAN_POINT ( 'NONE',  ( -10.00000000000000178, 2.500000000000000444, -5000.000000000000000 ) ) ;
#6 = DIRECTION ( 'NONE',  ( -1.000000000000000000, -2.168404344971008868E-17, 0.0000000000000000000 ) ) ;
#7 = CARTESIAN_POINT ( 'NONE',  ( -10.00000000000000178, 2.500000000000000444, -5000.000000000000000 ) ) ;
#8 = APPLICATION_PROTOCOL_DEFINITION ( 'draft international standard', 'automotive_design', 1998, #164 ) ;
#9 = PRODUCT_DEFINITION_SHAPE ( 'NONE', 'NONE',  #111 ) ;
#10 = ADVANCED_FACE ( 'NONE', ( #162 ), #118, .T. ) ;
#11 = MECHANICAL_DESIGN_GEOMETRIC_PRESENTATION_REPRESENTATION (  '', ( #62 ), #72 ) ;
#12 = ORIENTED_EDGE ( 'NONE', *, *, #27, .T. ) ;
#13 = ORIENTED_EDGE ( 'NONE', *, *, #24, .T. ) ;
#14 =( LENGTH_UNIT ( ) NAMED_UNIT ( * ) SI_UNIT ( .MILLI., .METRE. ) );
#15 = ORIENTED_EDGE ( 'NONE', *, *, #192, .T. ) ;
#16 = CARTESIAN_POINT ( 'NONE',  ( -10.00000000000000178, -2.500000000000000000, -5000.000000000000000 ) ) ;
#17 = CARTESIAN_POINT ( 'NONE',  ( 10.00000000000000888, -2.499999999999997335, -5000.000000000000000 ) ) ;
#18 = AXIS2_PLACEMENT_3D ( 'NONE', #92, #185, #49 ) ;
#19 = CARTESIAN_POINT ( 'NONE',  ( -10.00000000000000178, -2.500000000000000000, -5000.000000000000000 ) ) ;
#20 = DIRECTION ( 'NONE',  ( -1.000000000000000000, 0.0000000000000000000, 0.0000000000000000000 ) ) ;
#21 = DIRECTION ( 'NONE',  ( -2.081668171172169302E-15, 1.000000000000000000, -0.0000000000000000000 ) ) ;
#22 = CARTESIAN_POINT ( 'NONE',  ( 9.999999999999998224, 2.500000000000000888, 0.0000000000000000000 ) ) ;
#23 = FILL_AREA_STYLE_COLOUR ( '', #80 ) ;
#24 = EDGE_CURVE ( 'NONE', #198, #81, #84, .T. ) ;
#25 = PRODUCT_CONTEXT ( 'NONE', #164, 'mechanical' ) ;
#26 = ORIENTED_EDGE ( 'NONE', *, *, #60, .F. ) ;
#27 = EDGE_CURVE ( 'NONE', #126, #61, #150, .T. ) ;
#28 = DIRECTION ( 'NONE',  ( 1.000000000000000000, 2.081668171172169302E-15, -0.0000000000000000000 ) ) ;
#29 = FACE_OUTER_BOUND ( 'NONE', #161, .T. ) ;
#30 = VECTOR ( 'NONE', #66, 1000.000000000000000 ) ;
#31 = DIRECTION ( 'NONE',  ( -0.0000000000000000000, 0.0000000000000000000, 1.000000000000000000 ) ) ;
#32 = MANIFOLD_SOLID_BREP ( 'Boss-Extrude1', #82 ) ;
#33 = DIRECTION ( 'NONE',  ( 1.000000000000000000, 1.301042606982604581E-16, 0.0000000000000000000 ) ) ;
#34 = DIRECTION ( 'NONE',  ( 0.0000000000000000000, -1.000000000000000000, 0.0000000000000000000 ) ) ;
#35 = CARTESIAN_POINT ( 'NONE',  ( 0.0000000000000000000, 0.0000000000000000000, -5000.000000000000000 ) ) ;
#36 = SURFACE_STYLE_FILL_AREA ( #191 ) ;
#37 =( GEOMETRIC_REPRESENTATION_CONTEXT ( 3 ) GLOBAL_UNCERTAINTY_ASSIGNED_CONTEXT ( ( #148 ) ) GLOBAL_UNIT_ASSIGNED_CONTEXT ( ( #176, #174, #177 ) ) REPRESENTATION_CONTEXT ( 'NONE', 'WORKASPACE' ) );
#38 =( NAMED_UNIT ( * ) SI_UNIT ( $, .STERADIAN. ) SOLID_ANGLE_UNIT ( ) );
#39 = EDGE_CURVE ( 'NONE', #179, #81, #149, .T. ) ;
#40 = VERTEX_POINT ( 'NONE', #17 ) ;
#41 = ORIENTED_EDGE ( 'NONE', *, *, #184, .F. ) ;
#42 =( NAMED_UNIT ( * ) SI_UNIT ( $, .STERADIAN. ) SOLID_ANGLE_UNIT ( ) );
#43 = ORIENTED_EDGE ( 'NONE', *, *, #77, .T. ) ;
#44 = VECTOR ( 'NONE', #21, 1000.000000000000000 ) ;
#45 = VERTEX_POINT ( 'NONE', #119 ) ;
#46 = FACE_OUTER_BOUND ( 'NONE', #57, .T. ) ;
#47 = PRESENTATION_LAYER_ASSIGNMENT (  '', '', ( #163 ) ) ;
#48 = LINE ( 'NONE', #89, #44 ) ;
#49 = DIRECTION ( 'NONE',  ( 1.000000000000000000, 1.301042606982604581E-16, 0.0000000000000000000 ) ) ;
#50 = CARTESIAN_POINT ( 'NONE',  ( -10.00000000000000178, 2.500000000000000444, -5000.000000000000000 ) ) ;
#51 = CARTESIAN_POINT ( 'NONE',  ( 0.0000000000000000000, 0.0000000000000000000, 0.0000000000000000000 ) ) ;
#52 = AXIS2_PLACEMENT_3D ( 'NONE', #35, #103, #167 ) ;
#53 = EDGE_CURVE ( 'NONE', #40, #126, #48, .T. ) ;
#54 = ORIENTED_EDGE ( 'NONE', *, *, #113, .T. ) ;
#55 = ADVANCED_BREP_SHAPE_REPRESENTATION ( '08D65BD3-67BA-4DF9-9B7D-63D4528C3A41', ( #32, #153 ), #69 ) ;
#56 = CARTESIAN_POINT ( 'NONE',  ( 9.999999999999998224, 2.500000000000000888, -5000.000000000000000 ) ) ;
#57 = EDGE_LOOP ( 'NONE', ( #134, #117, #87, #85 ) ) ;
#58 = EDGE_CURVE ( 'NONE', #126, #100, #104, .T. ) ;
#59 = ORIENTED_EDGE ( 'NONE', *, *, #60, .T. ) ;
#60 = EDGE_CURVE ( 'NONE', #81, #45, #90, .T. ) ;
#61 = VERTEX_POINT ( 'NONE', #22 ) ;
#62 = STYLED_ITEM ( 'NONE', ( #99 ), #32 ) ;
#63 = CARTESIAN_POINT ( 'NONE',  ( 0.0000000000000000000, 0.0000000000000000000, 0.0000000000000000000 ) ) ;
#64 = LINE ( 'NONE', #5, #141 ) ;
#65 = LINE ( 'NONE', #140, #101 ) ;
#66 = DIRECTION ( 'NONE',  ( 0.0000000000000000000, 0.0000000000000000000, 1.000000000000000000 ) ) ;
#67 = SURFACE_STYLE_USAGE ( .BOTH. , #94 ) ;
#68 = EDGE_LOOP ( 'NONE', ( #41, #70, #95, #12 ) ) ;
#69 =( GEOMETRIC_REPRESENTATION_CONTEXT ( 3 ) GLOBAL_UNCERTAINTY_ASSIGNED_CONTEXT ( ( #3 ) ) GLOBAL_UNIT_ASSIGNED_CONTEXT ( ( #78, #112, #38 ) ) REPRESENTATION_CONTEXT ( 'NONE', 'WORKASPACE' ) );
#70 = ORIENTED_EDGE ( 'NONE', *, *, #143, .F. ) ;
#71 = ORIENTED_EDGE ( 'NONE', *, *, #24, .F. ) ;
#72 =( GEOMETRIC_REPRESENTATION_CONTEXT ( 3 ) GLOBAL_UNCERTAINTY_ASSIGNED_CONTEXT ( ( #73 ) ) GLOBAL_UNIT_ASSIGNED_CONTEXT ( ( #14, #196, #42 ) ) REPRESENTATION_CONTEXT ( 'NONE', 'WORKASPACE' ) );
#73 = UNCERTAINTY_MEASURE_WITH_UNIT (LENGTH_MEASURE( 1.000000000000000082E-05 ), #14, 'distance_accuracy_value', 'NONE');
#74 = LINE ( 'NONE', #76, #122 ) ;
#75 = DIRECTION ( 'NONE',  ( 0.0000000000000000000, 0.0000000000000000000, 1.000000000000000000 ) ) ;
#76 = CARTESIAN_POINT ( 'NONE',  ( 9.999999999999998224, 2.500000000000000888, 0.0000000000000000000 ) ) ;
#77 = EDGE_CURVE ( 'NONE', #100, #198, #139, .T. ) ;
#78 =( LENGTH_UNIT ( ) NAMED_UNIT ( * ) SI_UNIT ( .MILLI., .METRE. ) );
#79 = DIRECTION ( 'NONE',  ( -1.000000000000000000, -2.168404344971008868E-17, -0.0000000000000000000 ) ) ;
#80 = COLOUR_RGB ( '',0.0000000000000000000, 1.000000000000000000, 0.0000000000000000000 ) ;
#81 = VERTEX_POINT ( 'NONE', #123 ) ;
#82 = CLOSED_SHELL ( 'NONE', ( #93, #200, #10, #109, #129, #151 ) ) ;
#83 = EDGE_LOOP ( 'NONE', ( #71, #133, #15, #202 ) ) ;
#84 = LINE ( 'NONE', #2, #160 ) ;
#85 = ORIENTED_EDGE ( 'NONE', *, *, #96, .F. ) ;
#86 = DIRECTION ( 'NONE',  ( -2.081668171172169302E-15, 1.000000000000000000, 0.0000000000000000000 ) ) ;
#87 = ORIENTED_EDGE ( 'NONE', *, *, #53, .F. ) ;
#88 = DIRECTION ( 'NONE',  ( 0.0000000000000000000, 0.0000000000000000000, 1.000000000000000000 ) ) ;
#89 = CARTESIAN_POINT ( 'NONE',  ( 9.999999999999998224, 2.500000000000000888, -5000.000000000000000 ) ) ;
#90 = LINE ( 'NONE', #155, #193 ) ;
#91 = CARTESIAN_POINT ( 'NONE',  ( -10.00000000000000178, 2.500000000000000444, 0.0000000000000000000 ) ) ;
#92 = CARTESIAN_POINT ( 'NONE',  ( -10.00000000000000178, -2.500000000000000000, -5000.000000000000000 ) ) ;
#93 = ADVANCED_FACE ( 'NONE', ( #4 ), #157, .T. ) ;
#94 = SURFACE_SIDE_STYLE ('',( #36 ) ) ;
#95 = ORIENTED_EDGE ( 'NONE', *, *, #53, .T. ) ;
#96 = EDGE_CURVE ( 'NONE', #179, #40, #120, .T. ) ;
#97 = DIRECTION ( 'NONE',  ( 1.000000000000000000, 0.0000000000000000000, 0.0000000000000000000 ) ) ;
#98 = FILL_AREA_STYLE ('',( #146 ) ) ;
#99 = PRESENTATION_STYLE_ASSIGNMENT (( #130 ) ) ;
#100 = VERTEX_POINT ( 'NONE', #156 ) ;
#101 = VECTOR ( 'NONE', #152, 1000.000000000000000 ) ;
#102 = ORIENTED_EDGE ( 'NONE', *, *, #96, .T. ) ;
#103 = DIRECTION ( 'NONE',  ( -0.0000000000000000000, 0.0000000000000000000, 1.000000000000000000 ) ) ;
#104 = LINE ( 'NONE', #154, #1 ) ;
#105 = PRODUCT_DEFINITION_FORMATION_WITH_SPECIFIED_SOURCE ( 'ANY', '', #158, .NOT_KNOWN. ) ;
#106 = CARTESIAN_POINT ( 'NONE',  ( -10.00000000000000178, -2.500000000000000000, -5000.000000000000000 ) ) ;
#107 = LINE ( 'NONE', #170, #131 ) ;
#108 = PLANE ( 'NONE',  #52 ) ;
#109 = ADVANCED_FACE ( 'NONE', ( #29 ), #188, .T. ) ;
#110 = AXIS2_PLACEMENT_3D ( 'NONE', #50, #20, #88 ) ;
#111 = PRODUCT_DEFINITION ( 'UNKNOWN', '', #105, #201 ) ;
#112 =( NAMED_UNIT ( * ) PLANE_ANGLE_UNIT ( ) SI_UNIT ( $, .RADIAN. ) );
#113 = EDGE_CURVE ( 'NONE', #61, #198, #107, .T. ) ;
#114 = EDGE_LOOP ( 'NONE', ( #13, #59, #199, #54 ) ) ;
#115 = EDGE_LOOP ( 'NONE', ( #183, #178, #147, #43 ) ) ;
#116 = PRESENTATION_LAYER_ASSIGNMENT (  '', '', ( #62 ) ) ;
#117 = ORIENTED_EDGE ( 'NONE', *, *, #58, .F. ) ;
#118 = PLANE ( 'NONE',  #172 ) ;
#119 = CARTESIAN_POINT ( 'NONE',  ( 10.00000000000000888, -2.499999999999997335, 0.0000000000000000000 ) ) ;
#120 = LINE ( 'NONE', #106, #175 ) ;
#121 = PLANE ( 'NONE',  #197 ) ;
#122 = VECTOR ( 'NONE', #136, 1000.000000000000000 ) ;
#123 = CARTESIAN_POINT ( 'NONE',  ( -10.00000000000000178, -2.500000000000000000, 0.0000000000000000000 ) ) ;
#124 = CARTESIAN_POINT ( 'NONE',  ( 9.999999999999998224, 2.500000000000000888, -5000.000000000000000 ) ) ;
#125 = MECHANICAL_DESIGN_GEOMETRIC_PRESENTATION_REPRESENTATION (  '', ( #163 ), #37 ) ;
#126 = VERTEX_POINT ( 'NONE', #124 ) ;
#127 = PRESENTATION_STYLE_ASSIGNMENT (( #67 ) ) ;
#128 = ORIENTED_EDGE ( 'NONE', *, *, #143, .T. ) ;
#129 = ADVANCED_FACE ( 'NONE', ( #46 ), #108, .F. ) ;
#130 = SURFACE_STYLE_USAGE ( .BOTH. , #135 ) ;
#131 = VECTOR ( 'NONE', #79, 1000.000000000000000 ) ;
#132 = AXIS2_PLACEMENT_3D ( 'NONE', #63, #31, #169 ) ;
#133 = ORIENTED_EDGE ( 'NONE', *, *, #77, .F. ) ;
#134 = ORIENTED_EDGE ( 'NONE', *, *, #192, .F. ) ;
#135 = SURFACE_SIDE_STYLE ('',( #145 ) ) ;
#136 = DIRECTION ( 'NONE',  ( -2.081668171172169302E-15, 1.000000000000000000, -0.0000000000000000000 ) ) ;
#137 = FACE_OUTER_BOUND ( 'NONE', #115, .T. ) ;
#138 = PLANE ( 'NONE',  #132 ) ;
#139 = LINE ( 'NONE', #7, #30 ) ;
#140 = CARTESIAN_POINT ( 'NONE',  ( 10.00000000000000888, -2.499999999999997335, -5000.000000000000000 ) ) ;
#141 = VECTOR ( 'NONE', #34, 1000.000000000000000 ) ;
#142 = DIRECTION ( 'NONE',  ( 0.0000000000000000000, 0.0000000000000000000, 1.000000000000000000 ) ) ;
#143 = EDGE_CURVE ( 'NONE', #40, #45, #65, .T. ) ;
#144 = VECTOR ( 'NONE', #165, 1000.000000000000000 ) ;
#145 = SURFACE_STYLE_FILL_AREA ( #98 ) ;
#146 = FILL_AREA_STYLE_COLOUR ( '', #195 ) ;
#147 = ORIENTED_EDGE ( 'NONE', *, *, #58, .T. ) ;
#148 = UNCERTAINTY_MEASURE_WITH_UNIT (LENGTH_MEASURE( 1.000000000000000082E-05 ), #176, 'distance_accuracy_value', 'NONE');
#149 = LINE ( 'NONE', #16, #159 ) ;
#150 = LINE ( 'NONE', #182, #144 ) ;
#151 = ADVANCED_FACE ( 'NONE', ( #171 ), #138, .T. ) ;
#152 = DIRECTION ( 'NONE',  ( 0.0000000000000000000, 0.0000000000000000000, 1.000000000000000000 ) ) ;
#153 = AXIS2_PLACEMENT_3D ( 'NONE', #51, #142, #97 ) ;
#154 = CARTESIAN_POINT ( 'NONE',  ( -10.00000000000000178, 2.500000000000000444, -5000.000000000000000 ) ) ;
#155 = CARTESIAN_POINT ( 'NONE',  ( -10.00000000000000178, -2.500000000000000000, 0.0000000000000000000 ) ) ;
#156 = CARTESIAN_POINT ( 'NONE',  ( -10.00000000000000178, 2.500000000000000444, -5000.000000000000000 ) ) ;
#157 = PLANE ( 'NONE',  #110 ) ;
#158 = PRODUCT ( '08D65BD3-67BA-4DF9-9B7D-63D4528C3A41', '08D65BD3-67BA-4DF9-9B7D-63D4528C3A41', '', ( #25 ) ) ;
#159 = VECTOR ( 'NONE', #75, 1000.000000000000000 ) ;
#160 = VECTOR ( 'NONE', #166, 1000.000000000000000 ) ;
#161 = EDGE_LOOP ( 'NONE', ( #26, #180, #102, #128 ) ) ;
#162 = FACE_OUTER_BOUND ( 'NONE', #68, .T. ) ;
#163 = STYLED_ITEM ( 'NONE', ( #127 ), #55 ) ;
#164 = APPLICATION_CONTEXT ( 'automotive_design' ) ;
#165 = DIRECTION ( 'NONE',  ( 0.0000000000000000000, 0.0000000000000000000, 1.000000000000000000 ) ) ;
#166 = DIRECTION ( 'NONE',  ( 0.0000000000000000000, -1.000000000000000000, 0.0000000000000000000 ) ) ;
#167 = DIRECTION ( 'NONE',  ( 1.000000000000000000, 0.0000000000000000000, 0.0000000000000000000 ) ) ;
#168 = DIRECTION ( 'NONE',  ( 1.000000000000000000, 1.301042606982604581E-16, 0.0000000000000000000 ) ) ;
#169 = DIRECTION ( 'NONE',  ( 1.000000000000000000, 0.0000000000000000000, 0.0000000000000000000 ) ) ;
#170 = CARTESIAN_POINT ( 'NONE',  ( -10.00000000000000178, 2.500000000000000444, 0.0000000000000000000 ) ) ;
#171 = FACE_OUTER_BOUND ( 'NONE', #114, .T. ) ;
#172 = AXIS2_PLACEMENT_3D ( 'NONE', #56, #28, #86 ) ;
#173 = SHAPE_DEFINITION_REPRESENTATION ( #9, #55 ) ;
#174 =( NAMED_UNIT ( * ) PLANE_ANGLE_UNIT ( ) SI_UNIT ( $, .RADIAN. ) );
#175 = VECTOR ( 'NONE', #33, 1000.000000000000000 ) ;
#176 =( LENGTH_UNIT ( ) NAMED_UNIT ( * ) SI_UNIT ( .MILLI., .METRE. ) );
#177 =( NAMED_UNIT ( * ) SI_UNIT ( $, .STERADIAN. ) SOLID_ANGLE_UNIT ( ) );
#178 = ORIENTED_EDGE ( 'NONE', *, *, #27, .F. ) ;
#179 = VERTEX_POINT ( 'NONE', #19 ) ;
#180 = ORIENTED_EDGE ( 'NONE', *, *, #39, .F. ) ;
#181 = PRODUCT_RELATED_PRODUCT_CATEGORY ( 'part', '', ( #158 ) ) ;
#182 = CARTESIAN_POINT ( 'NONE',  ( 9.999999999999998224, 2.500000000000000888, -5000.000000000000000 ) ) ;
#183 = ORIENTED_EDGE ( 'NONE', *, *, #113, .F. ) ;
#184 = EDGE_CURVE ( 'NONE', #45, #61, #74, .T. ) ;
#185 = DIRECTION ( 'NONE',  ( 1.301042606982604581E-16, -1.000000000000000000, 0.0000000000000000000 ) ) ;
#186 = DIRECTION ( 'NONE',  ( -2.168404344971008868E-17, 1.000000000000000000, 0.0000000000000000000 ) ) ;
#187 = CARTESIAN_POINT ( 'NONE',  ( -10.00000000000000178, 2.500000000000000444, -5000.000000000000000 ) ) ;
#188 = PLANE ( 'NONE',  #18 ) ;
#189 = APPLICATION_CONTEXT ( 'automotive_design' ) ;
#190 = DIRECTION ( 'NONE',  ( -1.000000000000000000, -2.168404344971008868E-17, -0.0000000000000000000 ) ) ;
#191 = FILL_AREA_STYLE ('',( #23 ) ) ;
#192 = EDGE_CURVE ( 'NONE', #100, #179, #64, .T. ) ;
#193 = VECTOR ( 'NONE', #168, 1000.000000000000000 ) ;
#194 = APPLICATION_PROTOCOL_DEFINITION ( 'draft international standard', 'automotive_design', 1998, #189 ) ;
#195 = COLOUR_RGB ( '',0.0000000000000000000, 1.000000000000000000, 0.0000000000000000000 ) ;
#196 =( NAMED_UNIT ( * ) PLANE_ANGLE_UNIT ( ) SI_UNIT ( $, .RADIAN. ) );
#197 = AXIS2_PLACEMENT_3D ( 'NONE', #187, #186, #6 ) ;
#198 = VERTEX_POINT ( 'NONE', #91 ) ;
#199 = ORIENTED_EDGE ( 'NONE', *, *, #184, .T. ) ;
#200 = ADVANCED_FACE ( 'NONE', ( #137 ), #121, .T. ) ;
#201 = PRODUCT_DEFINITION_CONTEXT ( 'detailed design', #189, 'design' ) ;
#202 = ORIENTED_EDGE ( 'NONE', *, *, #39, .T. ) ;
ENDSEC;
END-ISO-10303-21;
