ISO-10303-21;
HEADER;
FILE_DESCRIPTION (( 'STEP AP214' ),
    '1' );
FILE_NAME ('9358E324-8D3F-4A01-B3E4-CF8346DFBFE9.STEP',
    '2023-08-01T12:47:57',
    ( '' ),
    ( '' ),
    'SwSTEP 2.0',
    'SolidWorks 2022',
    '' );
FILE_SCHEMA (( 'AUTOMOTIVE_DESIGN' ));
ENDSEC;

DATA;
#1 = SURFACE_STYLE_FILL_AREA ( #140 ) ;
#2 = DIRECTION ( 'NONE',  ( 0.0000000000000000000, 0.0000000000000000000, 1.000000000000000000 ) ) ;
#3 = PRODUCT_DEFINITION_CONTEXT ( 'detailed design', #170, 'design' ) ;
#4 = DIRECTION ( 'NONE',  ( 0.0000000000000000000, 0.0000000000000000000, 1.000000000000000000 ) ) ;
#5 = EDGE_CURVE ( 'NONE', #116, #136, #103, .T. ) ;
#6 = AXIS2_PLACEMENT_3D ( 'NONE', #35, #4, #96 ) ;
#7 = ADVANCED_FACE ( 'NONE', ( #26 ), #88, .T. ) ;
#8 = CARTESIAN_POINT ( 'NONE',  ( 0.0000000000000000000, 0.0000000000000000000, 0.0000000000000000000 ) ) ;
#9 = PRODUCT_RELATED_PRODUCT_CATEGORY ( 'part', '', ( #148 ) ) ;
#10 = DIRECTION ( 'NONE',  ( 1.000000000000000000, 1.246832498358329853E-16, 0.0000000000000000000 ) ) ;
#11 = ORIENTED_EDGE ( 'NONE', *, *, #164, .T. ) ;
#12 = ORIENTED_EDGE ( 'NONE', *, *, #67, .F. ) ;
#13 = AXIS2_PLACEMENT_3D ( 'NONE', #188, #31, #92 ) ;
#14 = EDGE_LOOP ( 'NONE', ( #72, #165, #169, #12 ) ) ;
#15 = CARTESIAN_POINT ( 'NONE',  ( -20.00000000000000000, 1.500000000000000222, 0.0000000000000000000 ) ) ;
#16 = DIRECTION ( 'NONE',  ( -1.000000000000000000, -5.963111948670274387E-17, -0.0000000000000000000 ) ) ;
#17 = PRESENTATION_LAYER_ASSIGNMENT (  '', '', ( #41 ) ) ;
#18 = CARTESIAN_POINT ( 'NONE',  ( 20.00000000000000711, -1.499999999999994893, -5000.000000000000000 ) ) ;
#19 = PLANE ( 'NONE',  #130 ) ;
#20 = PRESENTATION_STYLE_ASSIGNMENT (( #85 ) ) ;
#21 = ADVANCED_FACE ( 'NONE', ( #59 ), #118, .T. ) ;
#22 = FILL_AREA_STYLE ('',( #129 ) ) ;
#23 = VERTEX_POINT ( 'NONE', #125 ) ;
#24 = VECTOR ( 'NONE', #16, 1000.000000000000000 ) ;
#25 = EDGE_LOOP ( 'NONE', ( #138, #152, #11, #74 ) ) ;
#26 = FACE_OUTER_BOUND ( 'NONE', #43, .T. ) ;
#27 = VECTOR ( 'NONE', #185, 1000.000000000000000 ) ;
#28 = LINE ( 'NONE', #15, #24 ) ;
#29 = PLANE ( 'NONE',  #13 ) ;
#30 = EDGE_CURVE ( 'NONE', #119, #87, #93, .T. ) ;
#31 = DIRECTION ( 'NONE',  ( -0.0000000000000000000, 0.0000000000000000000, 1.000000000000000000 ) ) ;
#32 = UNCERTAINTY_MEASURE_WITH_UNIT (LENGTH_MEASURE( 1.000000000000000082E-05 ), #191, 'distance_accuracy_value', 'NONE');
#33 =( LENGTH_UNIT ( ) NAMED_UNIT ( * ) SI_UNIT ( .MILLI., .METRE. ) );
#34 = FACE_OUTER_BOUND ( 'NONE', #25, .T. ) ;
#35 = CARTESIAN_POINT ( 'NONE',  ( 0.0000000000000000000, 0.0000000000000000000, 0.0000000000000000000 ) ) ;
#36 = APPLICATION_PROTOCOL_DEFINITION ( 'draft international standard', 'automotive_design', 1998, #108 ) ;
#37 =( LENGTH_UNIT ( ) NAMED_UNIT ( * ) SI_UNIT ( .MILLI., .METRE. ) );
#38 = CARTESIAN_POINT ( 'NONE',  ( -20.00000000000000000, 1.500000000000000222, -5000.000000000000000 ) ) ;
#39 = ORIENTED_EDGE ( 'NONE', *, *, #5, .F. ) ;
#40 = ORIENTED_EDGE ( 'NONE', *, *, #149, .F. ) ;
#41 = STYLED_ITEM ( 'NONE', ( #143 ), #78 ) ;
#42 = VERTEX_POINT ( 'NONE', #159 ) ;
#43 = EDGE_LOOP ( 'NONE', ( #40, #199, #197, #71 ) ) ;
#44 = EDGE_LOOP ( 'NONE', ( #39, #171, #76, #56 ) ) ;
#45 = PRESENTATION_LAYER_ASSIGNMENT (  '', '', ( #192 ) ) ;
#46 = LINE ( 'NONE', #202, #163 ) ;
#47 = FACE_OUTER_BOUND ( 'NONE', #44, .T. ) ;
#48 = PLANE ( 'NONE',  #120 ) ;
#49 = SURFACE_SIDE_STYLE ('',( #1 ) ) ;
#50 =( NAMED_UNIT ( * ) SI_UNIT ( $, .STERADIAN. ) SOLID_ANGLE_UNIT ( ) );
#51 =( NAMED_UNIT ( * ) PLANE_ANGLE_UNIT ( ) SI_UNIT ( $, .RADIAN. ) );
#52 = VECTOR ( 'NONE', #10, 1000.000000000000000 ) ;
#53 = APPLICATION_PROTOCOL_DEFINITION ( 'draft international standard', 'automotive_design', 1998, #170 ) ;
#54 = CARTESIAN_POINT ( 'NONE',  ( -20.00000000000000000, 1.500000000000000222, -5000.000000000000000 ) ) ;
#55 = AXIS2_PLACEMENT_3D ( 'NONE', #109, #63, #90 ) ;
#56 = ORIENTED_EDGE ( 'NONE', *, *, #111, .T. ) ;
#57 = ORIENTED_EDGE ( 'NONE', *, *, #133, .F. ) ;
#58 = EDGE_CURVE ( 'NONE', #87, #150, #201, .T. ) ;
#59 = FACE_OUTER_BOUND ( 'NONE', #154, .T. ) ;
#60 = CARTESIAN_POINT ( 'NONE',  ( -20.00000000000000000, 1.500000000000000222, 0.0000000000000000000 ) ) ;
#61 = ORIENTED_EDGE ( 'NONE', *, *, #183, .T. ) ;
#62 = LINE ( 'NONE', #121, #27 ) ;
#63 = DIRECTION ( 'NONE',  ( -5.963111948670274387E-17, 1.000000000000000000, 0.0000000000000000000 ) ) ;
#64 = DIRECTION ( 'NONE',  ( 0.0000000000000000000, 0.0000000000000000000, 1.000000000000000000 ) ) ;
#65 = CARTESIAN_POINT ( 'NONE',  ( -20.00000000000000000, -1.499999999999999778, -5000.000000000000000 ) ) ;
#66 = VECTOR ( 'NONE', #182, 1000.000000000000000 ) ;
#67 = EDGE_CURVE ( 'NONE', #196, #119, #46, .T. ) ;
#68 = CARTESIAN_POINT ( 'NONE',  ( 20.00000000000000000, 1.500000000000002665, -5000.000000000000000 ) ) ;
#69 =( NAMED_UNIT ( * ) SI_UNIT ( $, .STERADIAN. ) SOLID_ANGLE_UNIT ( ) );
#70 = VECTOR ( 'NONE', #99, 1000.000000000000000 ) ;
#71 = ORIENTED_EDGE ( 'NONE', *, *, #30, .T. ) ;
#72 = ORIENTED_EDGE ( 'NONE', *, *, #137, .F. ) ;
#73 = DIRECTION ( 'NONE',  ( 1.000000000000000000, 1.246832498358329853E-16, 0.0000000000000000000 ) ) ;
#74 = ORIENTED_EDGE ( 'NONE', *, *, #102, .T. ) ;
#75 = ADVANCED_BREP_SHAPE_REPRESENTATION ( '9358E324-8D3F-4A01-B3E4-CF8346DFBFE9', ( #78, #6 ), #157 ) ;
#76 = ORIENTED_EDGE ( 'NONE', *, *, #137, .T. ) ;
#77 = ADVANCED_FACE ( 'NONE', ( #173 ), #29, .F. ) ;
#78 = MANIFOLD_SOLID_BREP ( 'Boss-Extrude1', #98 ) ;
#79 = VECTOR ( 'NONE', #178, 1000.000000000000000 ) ;
#80 = CARTESIAN_POINT ( 'NONE',  ( 20.00000000000000000, 1.500000000000002665, 0.0000000000000000000 ) ) ;
#81 =( NAMED_UNIT ( * ) PLANE_ANGLE_UNIT ( ) SI_UNIT ( $, .RADIAN. ) );
#82 = CARTESIAN_POINT ( 'NONE',  ( -20.00000000000000000, 1.500000000000000222, -5000.000000000000000 ) ) ;
#83 =( NAMED_UNIT ( * ) PLANE_ANGLE_UNIT ( ) SI_UNIT ( $, .RADIAN. ) );
#84 = CARTESIAN_POINT ( 'NONE',  ( -20.00000000000000000, -1.499999999999999778, 0.0000000000000000000 ) ) ;
#85 = SURFACE_STYLE_USAGE ( .BOTH. , #161 ) ;
#86 = SURFACE_STYLE_FILL_AREA ( #22 ) ;
#87 = VERTEX_POINT ( 'NONE', #158 ) ;
#88 = PLANE ( 'NONE',  #195 ) ;
#89 = CARTESIAN_POINT ( 'NONE',  ( 20.00000000000000711, -1.499999999999994893, -5000.000000000000000 ) ) ;
#90 = DIRECTION ( 'NONE',  ( -1.000000000000000000, -5.963111948670274387E-17, 0.0000000000000000000 ) ) ;
#91 =( GEOMETRIC_REPRESENTATION_CONTEXT ( 3 ) GLOBAL_UNCERTAINTY_ASSIGNED_CONTEXT ( ( #184 ) ) GLOBAL_UNIT_ASSIGNED_CONTEXT ( ( #33, #81, #50 ) ) REPRESENTATION_CONTEXT ( 'NONE', 'WORKASPACE' ) );
#92 = DIRECTION ( 'NONE',  ( 1.000000000000000000, 0.0000000000000000000, 0.0000000000000000000 ) ) ;
#93 = LINE ( 'NONE', #18, #112 ) ;
#94 = PRODUCT_DEFINITION ( 'UNKNOWN', '', #117, #3 ) ;
#95 = ADVANCED_FACE ( 'NONE', ( #34 ), #48, .T. ) ;
#96 = DIRECTION ( 'NONE',  ( 1.000000000000000000, 0.0000000000000000000, 0.0000000000000000000 ) ) ;
#97 = DIRECTION ( 'NONE',  ( -0.0000000000000000000, 0.0000000000000000000, 1.000000000000000000 ) ) ;
#98 = CLOSED_SHELL ( 'NONE', ( #127, #21, #95, #7, #77, #174 ) ) ;
#99 = DIRECTION ( 'NONE',  ( -2.312964634635744633E-15, 1.000000000000000000, -0.0000000000000000000 ) ) ;
#100 = ORIENTED_EDGE ( 'NONE', *, *, #102, .F. ) ;
#101 = COLOUR_RGB ( '',0.0000000000000000000, 1.000000000000000000, 0.0000000000000000000 ) ;
#102 = EDGE_CURVE ( 'NONE', #42, #150, #110, .T. ) ;
#103 = LINE ( 'NONE', #60, #104 ) ;
#104 = VECTOR ( 'NONE', #168, 1000.000000000000000 ) ;
#105 = DIRECTION ( 'NONE',  ( 0.0000000000000000000, 0.0000000000000000000, 1.000000000000000000 ) ) ;
#106 = CARTESIAN_POINT ( 'NONE',  ( -20.00000000000000000, -1.499999999999999778, 0.0000000000000000000 ) ) ;
#107 = FILL_AREA_STYLE_COLOUR ( '', #172 ) ;
#108 = APPLICATION_CONTEXT ( 'automotive_design' ) ;
#109 = CARTESIAN_POINT ( 'NONE',  ( -20.00000000000000000, 1.500000000000000222, -5000.000000000000000 ) ) ;
#110 = LINE ( 'NONE', #155, #179 ) ;
#111 = EDGE_CURVE ( 'NONE', #196, #136, #62, .T. ) ;
#112 = VECTOR ( 'NONE', #105, 1000.000000000000000 ) ;
#113 = LINE ( 'NONE', #38, #79 ) ;
#114 = PRODUCT_DEFINITION_SHAPE ( 'NONE', 'NONE',  #94 ) ;
#115 = ORIENTED_EDGE ( 'NONE', *, *, #5, .T. ) ;
#116 = VERTEX_POINT ( 'NONE', #142 ) ;
#117 = PRODUCT_DEFINITION_FORMATION_WITH_SPECIFIED_SOURCE ( 'ANY', '', #148, .NOT_KNOWN. ) ;
#118 = PLANE ( 'NONE',  #55 ) ;
#119 = VERTEX_POINT ( 'NONE', #89 ) ;
#120 = AXIS2_PLACEMENT_3D ( 'NONE', #160, #187, #156 ) ;
#121 = CARTESIAN_POINT ( 'NONE',  ( -20.00000000000000000, -1.499999999999999778, -5000.000000000000000 ) ) ;
#122 = DIRECTION ( 'NONE',  ( -1.000000000000000000, 0.0000000000000000000, 0.0000000000000000000 ) ) ;
#123 = DIRECTION ( 'NONE',  ( 1.000000000000000000, 1.246832498358329853E-16, 0.0000000000000000000 ) ) ;
#124 = MECHANICAL_DESIGN_GEOMETRIC_PRESENTATION_REPRESENTATION (  '', ( #41 ), #91 ) ;
#125 = CARTESIAN_POINT ( 'NONE',  ( -20.00000000000000000, 1.500000000000000222, -5000.000000000000000 ) ) ;
#126 = FACE_OUTER_BOUND ( 'NONE', #193, .T. ) ;
#127 = ADVANCED_FACE ( 'NONE', ( #47 ), #19, .T. ) ;
#128 = DIRECTION ( 'NONE',  ( 1.000000000000000000, 0.0000000000000000000, 0.0000000000000000000 ) ) ;
#129 = FILL_AREA_STYLE_COLOUR ( '', #101 ) ;
#130 = AXIS2_PLACEMENT_3D ( 'NONE', #82, #122, #2 ) ;
#131 = LINE ( 'NONE', #54, #167 ) ;
#132 = SHAPE_DEFINITION_REPRESENTATION ( #114, #75 ) ;
#133 = EDGE_CURVE ( 'NONE', #150, #116, #28, .T. ) ;
#134 = DIRECTION ( 'NONE',  ( 1.246832498358329853E-16, -1.000000000000000000, 0.0000000000000000000 ) ) ;
#135 = ORIENTED_EDGE ( 'NONE', *, *, #133, .T. ) ;
#136 = VERTEX_POINT ( 'NONE', #106 ) ;
#137 = EDGE_CURVE ( 'NONE', #23, #196, #175, .T. ) ;
#138 = ORIENTED_EDGE ( 'NONE', *, *, #58, .F. ) ;
#139 = ORIENTED_EDGE ( 'NONE', *, *, #58, .T. ) ;
#140 = FILL_AREA_STYLE ('',( #107 ) ) ;
#141 = AXIS2_PLACEMENT_3D ( 'NONE', #8, #97, #128 ) ;
#142 = CARTESIAN_POINT ( 'NONE',  ( -20.00000000000000000, 1.500000000000000222, 0.0000000000000000000 ) ) ;
#143 = PRESENTATION_STYLE_ASSIGNMENT (( #177 ) ) ;
#144 = PLANE ( 'NONE',  #141 ) ;
#145 =( NAMED_UNIT ( * ) SI_UNIT ( $, .STERADIAN. ) SOLID_ANGLE_UNIT ( ) );
#146 = LINE ( 'NONE', #68, #70 ) ;
#147 = LINE ( 'NONE', #84, #52 ) ;
#148 = PRODUCT ( '9358E324-8D3F-4A01-B3E4-CF8346DFBFE9', '9358E324-8D3F-4A01-B3E4-CF8346DFBFE9', '', ( #190 ) ) ;
#149 = EDGE_CURVE ( 'NONE', #136, #87, #147, .T. ) ;
#150 = VERTEX_POINT ( 'NONE', #162 ) ;
#151 = VECTOR ( 'NONE', #176, 1000.000000000000000 ) ;
#152 = ORIENTED_EDGE ( 'NONE', *, *, #30, .F. ) ;
#153 = CARTESIAN_POINT ( 'NONE',  ( -20.00000000000000000, -1.499999999999999778, -5000.000000000000000 ) ) ;
#154 = EDGE_LOOP ( 'NONE', ( #57, #100, #61, #181 ) ) ;
#155 = CARTESIAN_POINT ( 'NONE',  ( 20.00000000000000000, 1.500000000000002665, -5000.000000000000000 ) ) ;
#156 = DIRECTION ( 'NONE',  ( -2.312964634635744633E-15, 1.000000000000000000, 0.0000000000000000000 ) ) ;
#157 =( GEOMETRIC_REPRESENTATION_CONTEXT ( 3 ) GLOBAL_UNCERTAINTY_ASSIGNED_CONTEXT ( ( #198 ) ) GLOBAL_UNIT_ASSIGNED_CONTEXT ( ( #37, #51, #69 ) ) REPRESENTATION_CONTEXT ( 'NONE', 'WORKASPACE' ) );
#158 = CARTESIAN_POINT ( 'NONE',  ( 20.00000000000000711, -1.499999999999994893, 0.0000000000000000000 ) ) ;
#159 = CARTESIAN_POINT ( 'NONE',  ( 20.00000000000000000, 1.500000000000002665, -5000.000000000000000 ) ) ;
#160 = CARTESIAN_POINT ( 'NONE',  ( 20.00000000000000000, 1.500000000000002665, -5000.000000000000000 ) ) ;
#161 = SURFACE_SIDE_STYLE ('',( #86 ) ) ;
#162 = CARTESIAN_POINT ( 'NONE',  ( 20.00000000000000000, 1.500000000000002665, 0.0000000000000000000 ) ) ;
#163 = VECTOR ( 'NONE', #123, 1000.000000000000000 ) ;
#164 = EDGE_CURVE ( 'NONE', #119, #42, #146, .T. ) ;
#165 = ORIENTED_EDGE ( 'NONE', *, *, #183, .F. ) ;
#166 = ORIENTED_EDGE ( 'NONE', *, *, #149, .T. ) ;
#167 = VECTOR ( 'NONE', #189, 1000.000000000000000 ) ;
#168 = DIRECTION ( 'NONE',  ( 0.0000000000000000000, -1.000000000000000000, 0.0000000000000000000 ) ) ;
#169 = ORIENTED_EDGE ( 'NONE', *, *, #164, .F. ) ;
#170 = APPLICATION_CONTEXT ( 'automotive_design' ) ;
#171 = ORIENTED_EDGE ( 'NONE', *, *, #194, .F. ) ;
#172 = COLOUR_RGB ( '',0.0000000000000000000, 1.000000000000000000, 0.0000000000000000000 ) ;
#173 = FACE_OUTER_BOUND ( 'NONE', #14, .T. ) ;
#174 = ADVANCED_FACE ( 'NONE', ( #126 ), #144, .T. ) ;
#175 = LINE ( 'NONE', #186, #151 ) ;
#176 = DIRECTION ( 'NONE',  ( 0.0000000000000000000, -1.000000000000000000, 0.0000000000000000000 ) ) ;
#177 = SURFACE_STYLE_USAGE ( .BOTH. , #49 ) ;
#178 = DIRECTION ( 'NONE',  ( -1.000000000000000000, -5.963111948670274387E-17, -0.0000000000000000000 ) ) ;
#179 = VECTOR ( 'NONE', #64, 1000.000000000000000 ) ;
#180 =( GEOMETRIC_REPRESENTATION_CONTEXT ( 3 ) GLOBAL_UNCERTAINTY_ASSIGNED_CONTEXT ( ( #32 ) ) GLOBAL_UNIT_ASSIGNED_CONTEXT ( ( #191, #83, #145 ) ) REPRESENTATION_CONTEXT ( 'NONE', 'WORKASPACE' ) );
#181 = ORIENTED_EDGE ( 'NONE', *, *, #194, .T. ) ;
#182 = DIRECTION ( 'NONE',  ( -2.312964634635744633E-15, 1.000000000000000000, -0.0000000000000000000 ) ) ;
#183 = EDGE_CURVE ( 'NONE', #42, #23, #113, .T. ) ;
#184 = UNCERTAINTY_MEASURE_WITH_UNIT (LENGTH_MEASURE( 1.000000000000000082E-05 ), #33, 'distance_accuracy_value', 'NONE');
#185 = DIRECTION ( 'NONE',  ( 0.0000000000000000000, 0.0000000000000000000, 1.000000000000000000 ) ) ;
#186 = CARTESIAN_POINT ( 'NONE',  ( -20.00000000000000000, 1.500000000000000222, -5000.000000000000000 ) ) ;
#187 = DIRECTION ( 'NONE',  ( 1.000000000000000000, 2.312964634635744633E-15, -0.0000000000000000000 ) ) ;
#188 = CARTESIAN_POINT ( 'NONE',  ( 0.0000000000000000000, 0.0000000000000000000, -5000.000000000000000 ) ) ;
#189 = DIRECTION ( 'NONE',  ( 0.0000000000000000000, 0.0000000000000000000, 1.000000000000000000 ) ) ;
#190 = PRODUCT_CONTEXT ( 'NONE', #108, 'mechanical' ) ;
#191 =( LENGTH_UNIT ( ) NAMED_UNIT ( * ) SI_UNIT ( .MILLI., .METRE. ) );
#192 = STYLED_ITEM ( 'NONE', ( #20 ), #75 ) ;
#193 = EDGE_LOOP ( 'NONE', ( #115, #166, #139, #135 ) ) ;
#194 = EDGE_CURVE ( 'NONE', #23, #116, #131, .T. ) ;
#195 = AXIS2_PLACEMENT_3D ( 'NONE', #153, #134, #73 ) ;
#196 = VERTEX_POINT ( 'NONE', #65 ) ;
#197 = ORIENTED_EDGE ( 'NONE', *, *, #67, .T. ) ;
#198 = UNCERTAINTY_MEASURE_WITH_UNIT (LENGTH_MEASURE( 1.000000000000000082E-05 ), #37, 'distance_accuracy_value', 'NONE');
#199 = ORIENTED_EDGE ( 'NONE', *, *, #111, .F. ) ;
#200 = MECHANICAL_DESIGN_GEOMETRIC_PRESENTATION_REPRESENTATION (  '', ( #192 ), #180 ) ;
#201 = LINE ( 'NONE', #80, #66 ) ;
#202 = CARTESIAN_POINT ( 'NONE',  ( -20.00000000000000000, -1.499999999999999778, -5000.000000000000000 ) ) ;
ENDSEC;
END-ISO-10303-21;
