SolidWorks IGES file using analytic representation for surfaces         S      1
1H,,1H;,18HS0126-65416.SLDPRT,49HC:\Users\turcimas\Desktop\22apr11\S0126G      1
-65416.IGS,15HSolidWorks 2011,15HSolidWorks 2011,32,308,15,308,15,18HS01G      2
26-65416.SLDPRT,1.,2,2HMM,50,0.125,13H110422.162931,1E-008,499990.,8HturG      3
cimas,,11,0,13H110422.162931;                                           G      4
     314       1       0       0       0                        00000200D      1
     314       0       8       1       0                               0D      2
     502       2       0       0       0                        00010000D      3
     502       0       0       2       1                               0D      4
     100       4       0       0       0                        00010000D      5
     100       0       0       1       0                               0D      6
     100       5       0       0       0                        00010000D      7
     100       0       0       1       0                               0D      8
     100       6       0       0       0                        00010000D      9
     100       0       0       1       0                               0D     10
     100       7       0       0       0                        00010000D     11
     100       0       0       1       0                               0D     12
     110       8       0       0       0                        01010000D     13
     110       0       0       1       0                               0D     14
     100       9       0       0       0                        00010000D     15
     100       0       0       1       0                               0D     16
     100      10       0       0       0                        00010000D     17
     100       0       0       1       0                               0D     18
     110      11       0       0       0                        01010000D     19
     110       0       0       1       0                               0D     20
     110      12       0       0       0                        01010000D     21
     110       0       0       1       0                               0D     22
     100      13       0       0       0                        00010000D     23
     100       0       0       1       0                               0D     24
     100      14       0       0       0                        00010000D     25
     100       0       0       1       0                               0D     26
     110      15       0       0       0                        01010000D     27
     110       0       0       1       0                               0D     28
     504      16       0       0       0                        00010000D     29
     504       0       0       3       1                               0D     30
     110      19       0       0       0                        01010000D     31
     110       0       0       1       0                               0D     32
     110      20       0       0       0                        01010000D     33
     110       0       0       1       0                               0D     34
     120      21       0       0       0                        01010000D     35
     120       0      -1       1       0                               0D     36
     508      22       0       0       0                        00010000D     37
     508       0       0       1       1                               0D     38
     510      23       0       0       0                        00010000D     39
     510       0      -1       1       1                               0D     40
     110      24       0       0       0                        01010000D     41
     110       0       0       1       0                               0D     42
     110      25       0       0       0                        01010000D     43
     110       0       0       1       0                               0D     44
     120      26       0       0       0                        01010000D     45
     120       0      -1       1       0                               0D     46
     508      27       0       0       0                        00010000D     47
     508       0       0       1       1                               0D     48
     510      28       0       0       0                        00010000D     49
     510       0      -1       1       1                               0D     50
     116      29       0       0       0                        00010000D     51
     116       0       0       1       0                               0D     52
     123      30       0       0       0                        00010200D     53
     123       0       0       1       0                               0D     54
     123      31       0       0       0                        00010200D     55
     123       0       0       1       0                               0D     56
     190      32       0       0       0                        00010000D     57
     190       0      -1       1       1                               0D     58
     508      33       0       0       0                        00010000D     59
     508       0       0       1       1                               0D     60
     508      34       0       0       0                        00010000D     61
     508       0       0       1       1                               0D     62
     510      35       0       0       0                        00010000D     63
     510       0      -1       1       1                               0D     64
     116      36       0       0       0                        00010000D     65
     116       0       0       1       0                               0D     66
     123      37       0       0       0                        00010200D     67
     123       0       0       1       0                               0D     68
     123      38       0       0       0                        00010200D     69
     123       0       0       1       0                               0D     70
     190      39       0       0       0                        00010000D     71
     190       0      -1       1       1                               0D     72
     508      40       0       0       0                        00010000D     73
     508       0       0       1       1                               0D     74
     508      41       0       0       0                        00010000D     75
     508       0       0       1       1                               0D     76
     510      42       0       0       0                        00010000D     77
     510       0      -1       1       1                               0D     78
     110      43       0       0       0                        01010000D     79
     110       0       0       1       0                               0D     80
     110      44       0       0       0                        01010000D     81
     110       0       0       1       0                               0D     82
     120      45       0       0       0                        01010000D     83
     120       0      -1       1       0                               0D     84
     508      46       0       0       0                        00010000D     85
     508       0       0       1       1                               0D     86
     510      47       0       0       0                        00010000D     87
     510       0      -1       1       1                               0D     88
     110      48       0       0       0                        01010000D     89
     110       0       0       1       0                               0D     90
     110      49       0       0       0                        01010000D     91
     110       0       0       1       0                               0D     92
     120      50       0       0       0                        01010000D     93
     120       0      -1       1       0                               0D     94
     508      51       0       0       0                        00010000D     95
     508       0       0       1       1                               0D     96
     510      52       0       0       0                        00010000D     97
     510       0      -1       1       1                               0D     98
     514      53       0       0       0                        00010000D     99
     514       0       0       1       1                               0D    100
     186      54       0       0       0                        00000000D    101
     186       0       0       1       0                               0D    102
314,79.2156862745098,81.9607843137255,93.3333333333333,;               1P      1
502,8,-9.25,0.,0.,-13.5,0.,0.,13.5,0.,32.,-9.25,0.,32.,13.5,0.,        3P      2
0.,9.25,0.,0.,-13.5,0.,32.,9.25,0.,32.;                                3P      3
100,32.,0.,0.,13.5,0.,-13.5,0.;                                        5P      4
100,0.,0.,0.,-13.5,0.,13.5,0.;                                         7P      5
100,0.,0.,0.,13.5,0.,-13.5,0.;                                         9P      6
100,32.,0.,0.,9.25,0.,-9.25,0.;                                       11P      7
110,-9.25,0.,32.,-9.25,0.,0.;                                         13P      8
100,32.,0.,0.,-13.5,0.,13.5,0.;                                       15P      9
100,0.,0.,0.,-9.25,0.,9.25,0.;                                        17P     10
110,13.5,0.,32.,13.5,0.,0.;                                           19P     11
110,9.25,0.,32.,9.25,0.,0.;                                           21P     12
100,0.,0.,0.,9.25,0.,-9.25,0.;                                        23P     13
100,32.,0.,0.,-9.25,0.,9.25,0.;                                       25P     14
110,-13.5,0.,32.,-13.5,0.,0.;                                         27P     15
504,12,5,3,3,3,7,7,3,2,3,5,9,3,5,3,2,11,3,8,3,4,13,3,4,3,1,15,        29P     16
3,7,3,3,17,3,1,3,6,19,3,3,3,5,21,3,8,3,6,23,3,6,3,1,25,3,4,3,8,       29P     17
27,3,7,3,2;                                                           29P     18
110,0.,0.,32.,0.,0.,-968.;                                            31P     19
110,-9.25,0.,32.,-9.25,0.,0.;                                         33P     20
120,31,33,0.,6.28318530717959;                                        35P     21
508,4,0,29,11,1,0,0,29,9,1,0,0,29,7,0,0,0,29,5,0,0;                   37P     22
510,35,1,1,37;                                                        39P     23
110,0.,0.,32.,0.,0.,-968.;                                            41P     24
110,-13.5,0.,0.,-13.5,0.,32.;                                         43P     25
120,41,43,0.,6.28318530717959;                                        45P     26
508,4,0,29,1,0,0,0,29,8,1,0,0,29,3,1,0,0,29,12,0,0;                   47P     27
510,45,1,1,47;                                                        49P     28
116,0.,0.,32.,;                                                       51P     29
123,0.,0.,1.;                                                         53P     30
123,0.707106781,-0.707106781,0.;                                      55P     31
190,51,53,55;                                                         57P     32
508,2,0,29,6,1,0,0,29,1,1,0;                                          59P     33
508,2,0,29,11,0,0,0,29,4,0,0;                                         61P     34
510,57,2,1,59,61;                                                     63P     35
116,0.,0.,0.,;                                                        65P     36
123,0.,0.,1.;                                                         67P     37
123,0.707106781,-0.707106781,0.;                                      69P     38
190,65,67,69;                                                         71P     39
508,2,0,29,2,0,0,0,29,3,0,0;                                          73P     40
508,2,0,29,7,1,0,0,29,10,1,0;                                         75P     41
510,71,2,1,73,75;                                                     77P     42
110,0.,0.,32.,0.,0.,-968.;                                            79P     43
110,-13.5,0.,0.,-13.5,0.,32.;                                         81P     44
120,79,81,0.,6.28318530717959;                                        83P     45
508,4,0,29,8,0,0,0,29,6,0,0,0,29,12,1,0,0,29,2,1,0;                   85P     46
510,83,1,1,85;                                                        87P     47
110,0.,0.,32.,0.,0.,-968.;                                            89P     48
110,-9.25,0.,32.,-9.25,0.,0.;                                         91P     49
120,89,91,0.,6.28318530717959;                                        93P     50
508,4,0,29,9,0,0,0,29,4,1,0,0,29,5,1,0,0,29,10,0,0;                   95P     51
510,93,1,1,95;                                                        97P     52
514,6,39,1,49,1,63,1,77,1,87,1,97,1;                                  99P     53
186,99,1,0;                                                          101P     54
S      1G      4D    102P     54                                        T      1
