ISO-10303-21;
HEADER;
FILE_DESCRIPTION (( 'STEP AP203' ),
    '1' );
FILE_NAME ('L0820662461.STEP',
    '2024-04-02T10:45:34',
    ( '' ),
    ( '' ),
    'SwSTEP 2.0',
    'SolidWorks 2023',
    '' );
FILE_SCHEMA (( 'CONFIG_CONTROL_DESIGN' ));
ENDSEC;

DATA;
#1 = FACE_OUTER_BOUND ( 'NONE', #162, .T. ) ;
#2 =( LENGTH_UNIT ( ) NAMED_UNIT ( * ) SI_UNIT ( .MILLI., .METRE. ) );
#3 = DIRECTION ( 'NONE',  ( 8.336868109211585568E-18, 1.000000000000000000, -0.000000000000000000 ) ) ;
#4 = AXIS2_PLACEMENT_3D ( 'NONE', #345, #39, #33 ) ;
#5 = CIRCLE ( 'NONE', #232, 48.00000000000000000 ) ;
#6 = AXIS2_PLACEMENT_3D ( 'NONE', #394, #111, #224 ) ;
#7 = CARTESIAN_POINT ( 'NONE',  ( 5.564859462898735034E-16, 66.75000000000000000, 0.000000000000000000 ) ) ;
#8 = EDGE_CURVE ( 'NONE', #179, #179, #29, .T. ) ;
#9 = CARTESIAN_POINT ( 'NONE',  ( 4.001696692421563291E-16, 48.00000000000001421, 0.000000000000000000 ) ) ;
#10 = CARTESIAN_POINT ( 'NONE',  ( 3.793274989691271687E-16, 45.50000000000000000, 0.000000000000000000 ) ) ;
#11 = EDGE_CURVE ( 'NONE', #292, #292, #69, .T. ) ;
#12 = PLANE ( 'NONE',  #59 ) ;
#13 = APPROVAL_STATUS ( 'not_yet_approved' ) ;
#14 = FACE_OUTER_BOUND ( 'NONE', #343, .T. ) ;
#15 = PERSON_AND_ORGANIZATION ( #237, #351 ) ;
#16 = DIRECTION ( 'NONE',  ( -8.336868109211585568E-18, -1.000000000000000000, 0.000000000000000000 ) ) ;
#17 = LOCAL_TIME ( 12, 45, 34.00000000000000000, #206 ) ;
#18 = PERSON_AND_ORGANIZATION_ROLE ( 'classification_officer' ) ;
#19 = CARTESIAN_POINT ( 'NONE',  ( -29.00000000000000355, 48.00000000000001421, 0.000000000000000000 ) ) ;
#20 = ORIENTED_EDGE ( 'NONE', *, *, #128, .T. ) ;
#21 = SECURITY_CLASSIFICATION_LEVEL ( 'unclassified' ) ;
#22 = FACE_OUTER_BOUND ( 'NONE', #372, .T. ) ;
#23 = CARTESIAN_POINT ( 'NONE',  ( 20.50000000000000000, 43.00000000000000000, 0.000000000000000000 ) ) ;
#24 = CIRCLE ( 'NONE', #6, 48.00000000000000000 ) ;
#25 = ADVANCED_FACE ( 'NONE', ( #309, #153 ), #64, .F. ) ;
#26 = PRODUCT ( 'L0820662461', 'L0820662461', '', ( #54 ) ) ;
#27 = ORIENTED_EDGE ( 'NONE', *, *, #404, .F. ) ;
#28 = APPROVAL_PERSON_ORGANIZATION ( #173, #115, #49 ) ;
#29 = CIRCLE ( 'NONE', #320, 12.75000000000000000 ) ;
#30 = DIRECTION ( 'NONE',  ( -1.000000000000000000, 0.000000000000000000, 0.000000000000000000 ) ) ;
#31 = CIRCLE ( 'NONE', #280, 48.00000000000000000 ) ;
#32 = CARTESIAN_POINT ( 'NONE',  ( 0.000000000000000000, 0.000000000000000000, 0.000000000000000000 ) ) ;
#33 = DIRECTION ( 'NONE',  ( -1.000000000000000000, 0.000000000000000000, 0.000000000000000000 ) ) ;
#34 = CARTESIAN_POINT ( 'NONE',  ( -35.00000000000000000, 18.25000000000000355, 0.000000000000000000 ) ) ;
#35 = LOCAL_TIME ( 12, 45, 34.00000000000000000, #368 ) ;
#36 = FACE_OUTER_BOUND ( 'NONE', #175, .T. ) ;
#37 = APPROVAL ( #332, 'UNSPECIFIED' ) ;
#38 = AXIS2_PLACEMENT_3D ( 'NONE', #270, #207, #87 ) ;
#39 = DIRECTION ( 'NONE',  ( 8.336868109211585568E-18, 1.000000000000000000, -0.000000000000000000 ) ) ;
#40 = DIRECTION ( 'NONE',  ( 8.336868109211585568E-18, 1.000000000000000000, -0.000000000000000000 ) ) ;
#41 = VERTEX_POINT ( 'NONE', #312 ) ;
#42 = EDGE_CURVE ( 'NONE', #223, #223, #90, .T. ) ;
#43 = DIRECTION ( 'NONE',  ( 8.336868109211585568E-18, 1.000000000000000000, -0.000000000000000000 ) ) ;
#44 = CLOSED_SHELL ( 'NONE', ( #25, #211, #393, #342, #279, #380, #240, #180, #73, #80, #295, #137, #266, #257, #408, #323 ) ) ;
#45 = DATE_TIME_ROLE ( 'creation_date' ) ;
#46 = DIRECTION ( 'NONE',  ( -1.000000000000000000, 0.000000000000000000, 0.000000000000000000 ) ) ;
#47 = DATE_AND_TIME ( #113, #17 ) ;
#48 = CARTESIAN_POINT ( 'NONE',  ( -1.058782249869871683E-15, -127.0000000000000568, 0.000000000000000000 ) ) ;
#49 = APPROVAL_ROLE ( '' ) ;
#50 = DIRECTION ( 'NONE',  ( -1.000000000000000000, 0.000000000000000000, 0.000000000000000000 ) ) ;
#51 = EDGE_LOOP ( 'NONE', ( #141 ) ) ;
#52 = DATE_AND_TIME ( #75, #338 ) ;
#53 = EDGE_LOOP ( 'NONE', ( #27 ) ) ;
#54 = MECHANICAL_CONTEXT ( 'NONE', #301, 'mechanical' ) ;
#55 = ORIENTED_EDGE ( 'NONE', *, *, #192, .T. ) ;
#56 = EDGE_CURVE ( 'NONE', #353, #353, #337, .T. ) ;
#57 = PRODUCT_DEFINITION_FORMATION_WITH_SPECIFIED_SOURCE ( 'ANY', '', #26, .NOT_KNOWN. ) ;
#58 = AXIS2_PLACEMENT_3D ( 'NONE', #183, #382, #186 ) ;
#59 = AXIS2_PLACEMENT_3D ( 'NONE', #103, #116, #226 ) ;
#60 = AXIS2_PLACEMENT_3D ( 'NONE', #83, #267, #174 ) ;
#61 = ORIENTED_EDGE ( 'NONE', *, *, #271, .T. ) ;
#62 = DIRECTION ( 'NONE',  ( 8.336868109211585568E-18, 1.000000000000000000, -0.000000000000000000 ) ) ;
#63 = CYLINDRICAL_SURFACE ( 'NONE', #389, 20.50000000000000000 ) ;
#64 = PLANE ( 'NONE',  #58 ) ;
#65 = EDGE_CURVE ( 'NONE', #388, #388, #244, .T. ) ;
#66 = DIRECTION ( 'NONE',  ( 8.336868109211585568E-18, 1.000000000000000000, -0.000000000000000000 ) ) ;
#67 = VERTEX_POINT ( 'NONE', #190 ) ;
#68 = SECURITY_CLASSIFICATION ( '', '', #21 ) ;
#69 = CIRCLE ( 'NONE', #177, 29.00000000000000355 ) ;
#70 = FACE_OUTER_BOUND ( 'NONE', #243, .T. ) ;
#71 = CARTESIAN_POINT ( 'NONE',  ( -29.00000000000000355, 43.00000000000000000, 0.000000000000000000 ) ) ;
#72 = CARTESIAN_POINT ( 'NONE',  ( 2.021690516483810066E-16, 24.25000000000000355, 0.000000000000000000 ) ) ;
#73 = ADVANCED_FACE ( 'NONE', ( #150, #94 ), #96, .F. ) ;
#74 = FACE_OUTER_BOUND ( 'NONE', #336, .T. ) ;
#75 = CALENDAR_DATE ( 2024, 2, 4 ) ;
#76 = DIRECTION ( 'NONE',  ( 8.336868109211585568E-18, 1.000000000000000000, -0.000000000000000000 ) ) ;
#77 = CIRCLE ( 'NONE', #354, 20.50000000000000000 ) ;
#78 = FACE_BOUND ( 'NONE', #318, .T. ) ;
#79 = DATE_TIME_ROLE ( 'classification_date' ) ;
#80 = ADVANCED_FACE ( 'NONE', ( #70, #1 ), #63, .T. ) ;
#81 = DIRECTION ( 'NONE',  ( -1.000000000000000000, 0.000000000000000000, 0.000000000000000000 ) ) ;
#82 = PERSON_AND_ORGANIZATION ( #237, #351 ) ;
#83 = CARTESIAN_POINT ( 'NONE',  ( 7.586549979382544361E-16, 91.00000000000001421, 0.000000000000000000 ) ) ;
#84 = DIRECTION ( 'NONE',  ( -1.000000000000000000, 8.336868109211585568E-18, 0.000000000000000000 ) ) ;
#85 = ORIENTED_EDGE ( 'NONE', *, *, #65, .T. ) ;
#86 = CC_DESIGN_PERSON_AND_ORGANIZATION_ASSIGNMENT ( #365, #171, ( #57 ) ) ;
#87 = DIRECTION ( 'NONE',  ( 1.000000000000000000, -8.336868109211585568E-18, 0.000000000000000000 ) ) ;
#88 = EDGE_LOOP ( 'NONE', ( #339 ) ) ;
#89 = EDGE_LOOP ( 'NONE', ( #331 ) ) ;
#90 = CIRCLE ( 'NONE', #112, 20.50000000000000000 ) ;
#91 = CYLINDRICAL_SURFACE ( 'NONE', #341, 48.00000000000000000 ) ;
#92 =( GEOMETRIC_REPRESENTATION_CONTEXT ( 3 ) GLOBAL_UNCERTAINTY_ASSIGNED_CONTEXT ( ( #198 ) ) GLOBAL_UNIT_ASSIGNED_CONTEXT ( ( #2, #277, #185 ) ) REPRESENTATION_CONTEXT ( 'NONE', 'WORKASPACE' ) );
#93 = EDGE_LOOP ( 'NONE', ( #61 ) ) ;
#94 = FACE_OUTER_BOUND ( 'NONE', #216, .T. ) ;
#95 = DIRECTION ( 'NONE',  ( 1.000000000000000000, 0.000000000000000000, 0.000000000000000000 ) ) ;
#96 = PLANE ( 'NONE',  #245 ) ;
#97 = CONICAL_SURFACE ( 'NONE', #362, 29.00000000000000355, 0.2378359274574507465 ) ;
#98 = CARTESIAN_POINT ( 'NONE',  ( -20.50000000000000000, 1.709057962388375126E-16, 0.000000000000000000 ) ) ;
#99 = EDGE_CURVE ( 'NONE', #187, #187, #77, .T. ) ;
#100 = DESIGN_CONTEXT ( 'detailed design', #108, 'design' ) ;
#101 = FACE_OUTER_BOUND ( 'NONE', #239, .T. ) ;
#102 = DIRECTION ( 'NONE',  ( -1.000000000000000000, 0.000000000000000000, 0.000000000000000000 ) ) ;
#103 = CARTESIAN_POINT ( 'NONE',  ( 48.00000000000000000, 24.25000000000000000, 0.000000000000000000 ) ) ;
#104 = CARTESIAN_POINT ( 'NONE',  ( -20.50000000000000000, 48.00000000000001421, 0.000000000000000000 ) ) ;
#105 = PRODUCT_RELATED_PRODUCT_CATEGORY ( 'detail', '', ( #26 ) ) ;
#106 = DIRECTION ( 'NONE',  ( -1.000000000000000000, 0.000000000000000000, 0.000000000000000000 ) ) ;
#107 = APPROVAL_STATUS ( 'not_yet_approved' ) ;
#108 = APPLICATION_CONTEXT ( 'configuration controlled 3d designs of mechanical parts and assemblies' ) ;
#109 = FACE_BOUND ( 'NONE', #89, .T. ) ;
#110 = EDGE_LOOP ( 'NONE', ( #398 ) ) ;
#111 = DIRECTION ( 'NONE',  ( 8.336868109211585568E-18, 1.000000000000000000, -0.000000000000000000 ) ) ;
#112 = AXIS2_PLACEMENT_3D ( 'NONE', #32, #131, #276 ) ;
#113 = CALENDAR_DATE ( 2024, 2, 4 ) ;
#114 = CONICAL_SURFACE ( 'NONE', #233, 29.00000000000000355, 0.2378359274574507465 ) ;
#115 = APPROVAL ( #107, 'UNSPECIFIED' ) ;
#116 = DIRECTION ( 'NONE',  ( -8.336868109211585568E-18, -1.000000000000000000, 0.000000000000000000 ) ) ;
#117 = EDGE_LOOP ( 'NONE', ( #20 ) ) ;
#118 = CARTESIAN_POINT ( 'NONE',  ( 0.000000000000000000, 0.000000000000000000, 0.000000000000000000 ) ) ;
#119 = CC_DESIGN_APPROVAL ( #355, ( #68 ) ) ;
#120 = EDGE_CURVE ( 'NONE', #219, #219, #170, .T. ) ;
#121 = CARTESIAN_POINT ( 'NONE',  ( 3.793274989691271687E-16, 45.50000000000000000, 0.000000000000000000 ) ) ;
#122 = ORIENTED_EDGE ( 'NONE', *, *, #308, .T. ) ;
#123 = ORIENTED_EDGE ( 'NONE', *, *, #56, .F. ) ;
#124 = CC_DESIGN_PERSON_AND_ORGANIZATION_ASSIGNMENT ( #367, #294, ( #144 ) ) ;
#125 = ORIENTED_EDGE ( 'NONE', *, *, #197, .F. ) ;
#126 = CARTESIAN_POINT ( 'NONE',  ( 0.000000000000000000, 0.000000000000000000, 0.000000000000000000 ) ) ;
#127 = ORIENTED_EDGE ( 'NONE', *, *, #333, .F. ) ;
#128 = EDGE_CURVE ( 'NONE', #67, #67, #129, .T. ) ;
#129 = CIRCLE ( 'NONE', #306, 20.50000000000000000 ) ;
#130 = DIRECTION ( 'NONE',  ( -8.336868109211585568E-18, -1.000000000000000000, 0.000000000000000000 ) ) ;
#131 = DIRECTION ( 'NONE',  ( 8.336868109211585568E-18, 1.000000000000000000, -0.000000000000000000 ) ) ;
#132 = DIRECTION ( 'NONE',  ( -1.000000000000000000, 0.000000000000000000, 0.000000000000000000 ) ) ;
#133 = CARTESIAN_POINT ( 'NONE',  ( 35.00000000000000000, 18.25000000000000355, 0.000000000000000000 ) ) ;
#134 = FACE_OUTER_BOUND ( 'NONE', #325, .T. ) ;
#135 = APPROVAL_DATE_TIME ( #391, #355 ) ;
#136 = DIRECTION ( 'NONE',  ( -1.000000000000000000, 8.336868109211585568E-18, 0.000000000000000000 ) ) ;
#137 = ADVANCED_FACE ( 'NONE', ( #101, #350 ), #97, .F. ) ;
#138 = CALENDAR_DATE ( 2024, 2, 4 ) ;
#139 = DIRECTION ( 'NONE',  ( -1.000000000000000000, 0.000000000000000000, 0.000000000000000000 ) ) ;
#140 = CC_DESIGN_APPROVAL ( #37, ( #57 ) ) ;
#141 = ORIENTED_EDGE ( 'NONE', *, *, #11, .F. ) ;
#142 = AXIS2_PLACEMENT_3D ( 'NONE', #196, #40, #161 ) ;
#143 = APPROVAL_ROLE ( '' ) ;
#144 = PRODUCT_DEFINITION ( 'UNKNOWN', '', #57, #100 ) ;
#145 = ORIENTED_EDGE ( 'NONE', *, *, #99, .T. ) ;
#146 = AXIS2_PLACEMENT_3D ( 'NONE', #281, #385, #102 ) ;
#147 = ORIENTED_EDGE ( 'NONE', *, *, #120, .F. ) ;
#148 = ORIENTED_EDGE ( 'NONE', *, *, #42, .F. ) ;
#149 = AXIS2_PLACEMENT_3D ( 'NONE', #184, #66, #159 ) ;
#150 = FACE_BOUND ( 'NONE', #53, .T. ) ;
#151 = DIRECTION ( 'NONE',  ( 8.336868109211585568E-18, 1.000000000000000000, -0.000000000000000000 ) ) ;
#152 = CARTESIAN_POINT ( 'NONE',  ( -48.00000000000000000, 24.25000000000000355, 0.000000000000000000 ) ) ;
#153 = FACE_OUTER_BOUND ( 'NONE', #403, .T. ) ;
#154 = AXIS2_PLACEMENT_3D ( 'NONE', #118, #361, #236 ) ;
#155 = CARTESIAN_POINT ( 'NONE',  ( -35.00000000000000000, 72.75000000000001421, 0.000000000000000000 ) ) ;
#156 = AXIS2_PLACEMENT_3D ( 'NONE', #7, #347, #30 ) ;
#157 = CYLINDRICAL_SURFACE ( 'NONE', #146, 38.00000000000000000 ) ;
#158 = AXIS2_PLACEMENT_3D ( 'NONE', #133, #321, #235 ) ;
#159 = DIRECTION ( 'NONE',  ( -1.000000000000000000, 0.000000000000000000, 0.000000000000000000 ) ) ;
#160 = FACE_BOUND ( 'NONE', #405, .T. ) ;
#161 = DIRECTION ( 'NONE',  ( -1.000000000000000000, 0.000000000000000000, 0.000000000000000000 ) ) ;
#162 = EDGE_LOOP ( 'NONE', ( #406 ) ) ;
#163 = PERSON_AND_ORGANIZATION_ROLE ( 'design_supplier' ) ;
#164 = EDGE_CURVE ( 'NONE', #310, #310, #376, .T. ) ;
#165 = FACE_OUTER_BOUND ( 'NONE', #269, .T. ) ;
#166 = DATE_AND_TIME ( #265, #242 ) ;
#167 = FACE_OUTER_BOUND ( 'NONE', #110, .T. ) ;
#168 = ORIENTED_EDGE ( 'NONE', *, *, #253, .T. ) ;
#169 = FACE_OUTER_BOUND ( 'NONE', #298, .T. ) ;
#170 = CIRCLE ( 'NONE', #149, 29.00000000000000355 ) ;
#171 = PERSON_AND_ORGANIZATION_ROLE ( 'creator' ) ;
#172 = EDGE_LOOP ( 'NONE', ( #374 ) ) ;
#173 = PERSON_AND_ORGANIZATION ( #237, #351 ) ;
#174 = DIRECTION ( 'NONE',  ( -1.000000000000000000, 0.000000000000000000, 0.000000000000000000 ) ) ;
#175 = EDGE_LOOP ( 'NONE', ( #305 ) ) ;
#176 = EDGE_LOOP ( 'NONE', ( #208 ) ) ;
#177 = AXIS2_PLACEMENT_3D ( 'NONE', #248, #62, #220 ) ;
#178 = AXIS2_PLACEMENT_3D ( 'NONE', #288, #397, #136 ) ;
#179 = VERTEX_POINT ( 'NONE', #330 ) ;
#180 = ADVANCED_FACE ( 'NONE', ( #311, #36 ), #157, .T. ) ;
#181 = ORIENTED_EDGE ( 'NONE', *, *, #56, .T. ) ;
#182 = DIRECTION ( 'NONE',  ( 8.336868109211585568E-18, 1.000000000000000000, -0.000000000000000000 ) ) ;
#183 = CARTESIAN_POINT ( 'NONE',  ( 7.124095411714889368E-34, 8.545289811941875630E-17, 0.000000000000000000 ) ) ;
#184 = CARTESIAN_POINT ( 'NONE',  ( 3.584853286960982056E-16, 43.00000000000000000, 0.000000000000000000 ) ) ;
#185 =( NAMED_UNIT ( * ) SI_UNIT ( $, .STERADIAN. ) SOLID_ANGLE_UNIT ( ) );
#186 = DIRECTION ( 'NONE',  ( -1.000000000000000000, 8.336868109211585568E-18, 0.000000000000000000 ) ) ;
#187 = VERTEX_POINT ( 'NONE', #225 ) ;
#188 = DIRECTION ( 'NONE',  ( 8.336868109211585568E-18, 1.000000000000000000, -0.000000000000000000 ) ) ;
#189 = LOCAL_TIME ( 12, 45, 34.00000000000000000, #326 ) ;
#190 = CARTESIAN_POINT ( 'NONE',  ( -20.50000000000000000, 43.00000000000000000, 0.000000000000000000 ) ) ;
#191 = DIRECTION ( 'NONE',  ( -1.000000000000000000, 8.336868109211585568E-18, 0.000000000000000000 ) ) ;
#192 = EDGE_CURVE ( 'NONE', #381, #381, #395, .T. ) ;
#193 = CARTESIAN_POINT ( 'NONE',  ( -38.00000000000000000, 66.75000000000000000, 0.000000000000000000 ) ) ;
#194 = CARTESIAN_POINT ( 'NONE',  ( 35.00000000000000000, 72.75000000000001421, 0.000000000000000000 ) ) ;
#195 = VERTEX_POINT ( 'NONE', #285 ) ;
#196 = CARTESIAN_POINT ( 'NONE',  ( 2.021690516483809820E-16, 24.25000000000000000, 0.000000000000000000 ) ) ;
#197 = EDGE_CURVE ( 'NONE', #357, #357, #5, .T. ) ;
#198 = UNCERTAINTY_MEASURE_WITH_UNIT (LENGTH_MEASURE( 1.000000000000000082E-05 ), #2, 'distance_accuracy_value', 'NONE');
#199 = DIRECTION ( 'NONE',  ( 8.336868109211585568E-18, 1.000000000000000000, -0.000000000000000000 ) ) ;
#200 = APPLICATION_PROTOCOL_DEFINITION ( 'international standard', 'config_control_design', 1994, #108 ) ;
#201 = PLANE ( 'NONE',  #340 ) ;
#202 = PERSON_AND_ORGANIZATION ( #237, #351 ) ;
#203 = ADVANCED_BREP_SHAPE_REPRESENTATION ( 'L0820662461', ( #349, #154 ), #92 ) ;
#204 = DIRECTION ( 'NONE',  ( -1.000000000000000000, 8.336868109211585568E-18, 0.000000000000000000 ) ) ;
#205 = ORIENTED_EDGE ( 'NONE', *, *, #308, .F. ) ;
#206 = COORDINATED_UNIVERSAL_TIME_OFFSET ( 1, 0, .AHEAD. ) ;
#207 = DIRECTION ( 'NONE',  ( 8.336868109211585568E-18, 1.000000000000000000, 0.000000000000000000 ) ) ;
#208 = ORIENTED_EDGE ( 'NONE', *, *, #128, .F. ) ;
#209 = EDGE_LOOP ( 'NONE', ( #210 ) ) ;
#210 = ORIENTED_EDGE ( 'NONE', *, *, #11, .T. ) ;
#211 = ADVANCED_FACE ( 'NONE', ( #327, #260 ), #364, .T. ) ;
#212 = APPROVAL_PERSON_ORGANIZATION ( #82, #37, #143 ) ;
#213 = FACE_OUTER_BOUND ( 'NONE', #402, .T. ) ;
#214 = CIRCLE ( 'NONE', #60, 12.75000000000000000 ) ;
#215 = EDGE_LOOP ( 'NONE', ( #147 ) ) ;
#216 = EDGE_LOOP ( 'NONE', ( #145 ) ) ;
#217 = VERTEX_POINT ( 'NONE', #348 ) ;
#218 = CARTESIAN_POINT ( 'NONE',  ( 3.793274989691272674E-16, 45.50000000000001421, 0.000000000000000000 ) ) ;
#219 = VERTEX_POINT ( 'NONE', #71 ) ;
#220 = DIRECTION ( 'NONE',  ( -1.000000000000000000, 0.000000000000000000, 0.000000000000000000 ) ) ;
#221 = CC_DESIGN_DATE_AND_TIME_ASSIGNMENT ( #259, #79, ( #68 ) ) ;
#222 = CARTESIAN_POINT ( 'NONE',  ( 5.564859462898735034E-16, 66.75000000000000000, 0.000000000000000000 ) ) ;
#223 = VERTEX_POINT ( 'NONE', #98 ) ;
#224 = DIRECTION ( 'NONE',  ( -1.000000000000000000, 0.000000000000000000, 0.000000000000000000 ) ) ;
#225 = CARTESIAN_POINT ( 'NONE',  ( -20.50000000000000000, 91.00000000000001421, 0.000000000000000000 ) ) ;
#226 = DIRECTION ( 'NONE',  ( 1.000000000000000000, -8.336868109211585568E-18, 0.000000000000000000 ) ) ;
#227 = CC_DESIGN_PERSON_AND_ORGANIZATION_ASSIGNMENT ( #15, #319, ( #26 ) ) ;
#228 = PERSON_AND_ORGANIZATION ( #237, #351 ) ;
#229 = DIRECTION ( 'NONE',  ( 8.336868109211585568E-18, 1.000000000000000000, -0.000000000000000000 ) ) ;
#230 = PERSON_AND_ORGANIZATION ( #237, #351 ) ;
#231 = FACE_OUTER_BOUND ( 'NONE', #344, .T. ) ;
#232 = AXIS2_PLACEMENT_3D ( 'NONE', #72, #199, #46 ) ;
#233 = AXIS2_PLACEMENT_3D ( 'NONE', #283, #16, #263 ) ;
#234 = APPROVAL_DATE_TIME ( #52, #37 ) ;
#235 = DIRECTION ( 'NONE',  ( -1.000000000000000000, 8.336868109211585568E-18, 0.000000000000000000 ) ) ;
#236 = DIRECTION ( 'NONE',  ( 1.000000000000000000, 0.000000000000000000, 0.000000000000000000 ) ) ;
#237 = PERSON ( 'UNSPECIFIED', 'UNSPECIFIED', 'UNSPECIFIED', ('UNSPECIFIED'), ('UNSPECIFIED'), ('UNSPECIFIED') ) ;
#238 = APPROVAL_ROLE ( '' ) ;
#239 = EDGE_LOOP ( 'NONE', ( #122 ) ) ;
#240 = ADVANCED_FACE ( 'NONE', ( #109, #169 ), #12, .F. ) ;
#241 = ORIENTED_EDGE ( 'NONE', *, *, #197, .T. ) ;
#242 = LOCAL_TIME ( 12, 45, 34.00000000000000000, #329 ) ;
#243 = EDGE_LOOP ( 'NONE', ( #85 ) ) ;
#244 = CIRCLE ( 'NONE', #4, 20.50000000000000000 ) ;
#245 = AXIS2_PLACEMENT_3D ( 'NONE', #275, #130, #409 ) ;
#246 = DIRECTION ( 'NONE',  ( 8.336868109211585568E-18, 1.000000000000000000, 0.000000000000000000 ) ) ;
#247 = DIRECTION ( 'NONE',  ( 8.336868109211585568E-18, 1.000000000000000000, -0.000000000000000000 ) ) ;
#248 = CARTESIAN_POINT ( 'NONE',  ( 4.001696692421563291E-16, 48.00000000000001421, 0.000000000000000000 ) ) ;
#249 = CARTESIAN_POINT ( 'NONE',  ( -38.00000000000000000, 24.25000000000000000, 0.000000000000000000 ) ) ;
#250 = AXIS2_PLACEMENT_3D ( 'NONE', #378, #188, #254 ) ;
#251 = DIRECTION ( 'NONE',  ( -1.000000000000000000, 0.000000000000000000, 0.000000000000000000 ) ) ;
#252 = CARTESIAN_POINT ( 'NONE',  ( -48.00000000000000000, 66.75000000000000000, 0.000000000000000000 ) ) ;
#253 = EDGE_CURVE ( 'NONE', #195, #195, #31, .T. ) ;
#254 = DIRECTION ( 'NONE',  ( -1.000000000000000000, 0.000000000000000000, 0.000000000000000000 ) ) ;
#255 = DIRECTION ( 'NONE',  ( 8.336868109211585568E-18, 1.000000000000000000, -0.000000000000000000 ) ) ;
#256 = CC_DESIGN_APPROVAL ( #115, ( #144 ) ) ;
#257 = ADVANCED_FACE ( 'NONE', ( #231, #134 ), #358, .T. ) ;
#258 = FACE_OUTER_BOUND ( 'NONE', #273, .T. ) ;
#259 = DATE_AND_TIME ( #287, #35 ) ;
#260 = FACE_OUTER_BOUND ( 'NONE', #293, .T. ) ;
#261 = CYLINDRICAL_SURFACE ( 'NONE', #313, 12.75000000000000000 ) ;
#262 = COORDINATED_UNIVERSAL_TIME_OFFSET ( 1, 0, .AHEAD. ) ;
#263 = DIRECTION ( 'NONE',  ( 1.000000000000000000, 0.000000000000000000, 0.000000000000000000 ) ) ;
#264 = ORIENTED_EDGE ( 'NONE', *, *, #42, .T. ) ;
#265 = CALENDAR_DATE ( 2024, 2, 4 ) ;
#266 = ADVANCED_FACE ( 'NONE', ( #74, #291 ), #201, .F. ) ;
#267 = DIRECTION ( 'NONE',  ( 8.336868109211585568E-18, 1.000000000000000000, 0.000000000000000000 ) ) ;
#268 = SHAPE_DEFINITION_REPRESENTATION ( #302, #203 ) ;
#269 = EDGE_LOOP ( 'NONE', ( #307 ) ) ;
#270 = CARTESIAN_POINT ( 'NONE',  ( 48.00000000000000000, 66.75000000000000000, 0.000000000000000000 ) ) ;
#271 = EDGE_CURVE ( 'NONE', #316, #316, #396, .T. ) ;
#272 = EDGE_LOOP ( 'NONE', ( #205 ) ) ;
#273 = EDGE_LOOP ( 'NONE', ( #125 ) ) ;
#274 = AXIS2_PLACEMENT_3D ( 'NONE', #10, #43, #81 ) ;
#275 = CARTESIAN_POINT ( 'NONE',  ( 7.586549979382544361E-16, 91.00000000000001421, 0.000000000000000000 ) ) ;
#276 = DIRECTION ( 'NONE',  ( -1.000000000000000000, 8.336868109211585568E-18, 0.000000000000000000 ) ) ;
#277 =( NAMED_UNIT ( * ) PLANE_ANGLE_UNIT ( ) SI_UNIT ( $, .RADIAN. ) );
#278 = CARTESIAN_POINT ( 'NONE',  ( 7.586549979382544361E-16, 91.00000000000001421, 0.000000000000000000 ) ) ;
#279 = ADVANCED_FACE ( 'NONE', ( #14, #78 ), #387, .F. ) ;
#280 = AXIS2_PLACEMENT_3D ( 'NONE', #315, #76, #50 ) ;
#281 = CARTESIAN_POINT ( 'NONE',  ( 3.793274989691271687E-16, 45.50000000000000000, 0.000000000000000000 ) ) ;
#282 = CARTESIAN_POINT ( 'NONE',  ( 3.584853286960982056E-16, 43.00000000000000000, 0.000000000000000000 ) ) ;
#283 = CARTESIAN_POINT ( 'NONE',  ( 3.584853286960982056E-16, 43.00000000000000000, 0.000000000000000000 ) ) ;
#284 = APPROVAL_PERSON_ORGANIZATION ( #202, #355, #238 ) ;
#285 = CARTESIAN_POINT ( 'NONE',  ( -48.00000000000000000, 72.75000000000001421, 0.000000000000000000 ) ) ;
#286 = CARTESIAN_POINT ( 'NONE',  ( 6.065071549451429953E-16, 72.75000000000001421, 0.000000000000000000 ) ) ;
#287 = CALENDAR_DATE ( 2024, 2, 4 ) ;
#288 = CARTESIAN_POINT ( 'NONE',  ( 20.50000000000000000, 48.00000000000001421, 0.000000000000000000 ) ) ;
#289 = FACE_BOUND ( 'NONE', #297, .T. ) ;
#290 = CC_DESIGN_DATE_AND_TIME_ASSIGNMENT ( #47, #45, ( #144 ) ) ;
#291 = FACE_BOUND ( 'NONE', #272, .T. ) ;
#292 = VERTEX_POINT ( 'NONE', #19 ) ;
#293 = EDGE_LOOP ( 'NONE', ( #264 ) ) ;
#294 = PERSON_AND_ORGANIZATION_ROLE ( 'creator' ) ;
#295 = ADVANCED_FACE ( 'NONE', ( #392, #289 ), #317, .F. ) ;
#296 = FACE_BOUND ( 'NONE', #360, .T. ) ;
#297 = EDGE_LOOP ( 'NONE', ( #328 ) ) ;
#298 = EDGE_LOOP ( 'NONE', ( #241 ) ) ;
#299 = AXIS2_PLACEMENT_3D ( 'NONE', #222, #352, #359 ) ;
#300 = CIRCLE ( 'NONE', #363, 35.00000000000000000 ) ;
#301 = APPLICATION_CONTEXT ( 'configuration controlled 3d designs of mechanical parts and assemblies' ) ;
#302 = PRODUCT_DEFINITION_SHAPE ( 'NONE', 'NONE',  #144 ) ;
#303 = ORIENTED_EDGE ( 'NONE', *, *, #120, .T. ) ;
#304 = ORIENTED_EDGE ( 'NONE', *, *, #253, .F. ) ;
#305 = ORIENTED_EDGE ( 'NONE', *, *, #192, .F. ) ;
#306 = AXIS2_PLACEMENT_3D ( 'NONE', #282, #247, #379 ) ;
#307 = ORIENTED_EDGE ( 'NONE', *, *, #8, .F. ) ;
#308 = EDGE_CURVE ( 'NONE', #384, #384, #300, .T. ) ;
#309 = FACE_BOUND ( 'NONE', #88, .T. ) ;
#310 = VERTEX_POINT ( 'NONE', #34 ) ;
#311 = FACE_OUTER_BOUND ( 'NONE', #93, .T. ) ;
#312 = CARTESIAN_POINT ( 'NONE',  ( -12.75000000000000000, 91.00000000000001421, 0.000000000000000000 ) ) ;
#313 = AXIS2_PLACEMENT_3D ( 'NONE', #48, #255, #106 ) ;
#314 = DIRECTION ( 'NONE',  ( -8.336868109211585568E-18, -1.000000000000000000, 0.000000000000000000 ) ) ;
#315 = CARTESIAN_POINT ( 'NONE',  ( 6.065071549451429953E-16, 72.75000000000001421, 0.000000000000000000 ) ) ;
#316 = VERTEX_POINT ( 'NONE', #249 ) ;
#317 = PLANE ( 'NONE',  #178 ) ;
#318 = EDGE_LOOP ( 'NONE', ( #370 ) ) ;
#319 = PERSON_AND_ORGANIZATION_ROLE ( 'design_owner' ) ;
#320 = AXIS2_PLACEMENT_3D ( 'NONE', #126, #151, #191 ) ;
#321 = DIRECTION ( 'NONE',  ( 8.336868109211585568E-18, 1.000000000000000000, -0.000000000000000000 ) ) ;
#322 = APPLICATION_PROTOCOL_DEFINITION ( 'international standard', 'config_control_design', 1994, #301 ) ;
#323 = ADVANCED_FACE ( 'NONE', ( #324, #165 ), #261, .F. ) ;
#324 = FACE_OUTER_BOUND ( 'NONE', #172, .T. ) ;
#325 = EDGE_LOOP ( 'NONE', ( #304 ) ) ;
#326 = COORDINATED_UNIVERSAL_TIME_OFFSET ( 1, 0, .AHEAD. ) ;
#327 = FACE_OUTER_BOUND ( 'NONE', #176, .T. ) ;
#328 = ORIENTED_EDGE ( 'NONE', *, *, #65, .F. ) ;
#329 = COORDINATED_UNIVERSAL_TIME_OFFSET ( 1, 0, .AHEAD. ) ;
#330 = CARTESIAN_POINT ( 'NONE',  ( -12.75000000000000000, 1.062950683924477071E-16, 0.000000000000000000 ) ) ;
#331 = ORIENTED_EDGE ( 'NONE', *, *, #271, .F. ) ;
#332 = APPROVAL_STATUS ( 'not_yet_approved' ) ;
#333 = EDGE_CURVE ( 'NONE', #217, #217, #24, .T. ) ;
#334 = DIRECTION ( 'NONE',  ( -1.000000000000000000, 0.000000000000000000, 0.000000000000000000 ) ) ;
#335 = ORIENTED_EDGE ( 'NONE', *, *, #333, .T. ) ;
#336 = EDGE_LOOP ( 'NONE', ( #168 ) ) ;
#337 = CIRCLE ( 'NONE', #156, 48.00000000000000000 ) ;
#338 = LOCAL_TIME ( 12, 45, 34.00000000000000000, #262 ) ;
#339 = ORIENTED_EDGE ( 'NONE', *, *, #8, .T. ) ;
#340 = AXIS2_PLACEMENT_3D ( 'NONE', #194, #366, #204 ) ;
#341 = AXIS2_PLACEMENT_3D ( 'NONE', #121, #182, #334 ) ;
#342 = ADVANCED_FACE ( 'NONE', ( #167, #160 ), #114, .F. ) ;
#343 = EDGE_LOOP ( 'NONE', ( #127 ) ) ;
#344 = EDGE_LOOP ( 'NONE', ( #181 ) ) ;
#345 = CARTESIAN_POINT ( 'NONE',  ( 4.001696692421563291E-16, 48.00000000000001421, 0.000000000000000000 ) ) ;
#346 = CC_DESIGN_PERSON_AND_ORGANIZATION_ASSIGNMENT ( #230, #163, ( #57 ) ) ;
#347 = DIRECTION ( 'NONE',  ( 8.336868109211585568E-18, 1.000000000000000000, -0.000000000000000000 ) ) ;
#348 = CARTESIAN_POINT ( 'NONE',  ( -48.00000000000000000, 18.25000000000000355, 0.000000000000000000 ) ) ;
#349 = MANIFOLD_SOLID_BREP ( 'Cut-Extrude1', #44 ) ;
#350 = FACE_BOUND ( 'NONE', #51, .T. ) ;
#351 = ORGANIZATION ( 'UNSPECIFIED', 'UNSPECIFIED', '' ) ;
#352 = DIRECTION ( 'NONE',  ( 8.336868109211585568E-18, 1.000000000000000000, -0.000000000000000000 ) ) ;
#353 = VERTEX_POINT ( 'NONE', #252 ) ;
#354 = AXIS2_PLACEMENT_3D ( 'NONE', #278, #3, #383 ) ;
#355 = APPROVAL ( #13, 'UNSPECIFIED' ) ;
#356 = CARTESIAN_POINT ( 'NONE',  ( 3.793274989691272674E-16, 45.50000000000001421, 0.000000000000000000 ) ) ;
#357 = VERTEX_POINT ( 'NONE', #152 ) ;
#358 = CYLINDRICAL_SURFACE ( 'NONE', #407, 48.00000000000000000 ) ;
#359 = DIRECTION ( 'NONE',  ( -1.000000000000000000, 0.000000000000000000, 0.000000000000000000 ) ) ;
#360 = EDGE_LOOP ( 'NONE', ( #55 ) ) ;
#361 = DIRECTION ( 'NONE',  ( 0.000000000000000000, 0.000000000000000000, 1.000000000000000000 ) ) ;
#362 = AXIS2_PLACEMENT_3D ( 'NONE', #9, #246, #95 ) ;
#363 = AXIS2_PLACEMENT_3D ( 'NONE', #286, #229, #132 ) ;
#364 = CYLINDRICAL_SURFACE ( 'NONE', #274, 20.50000000000000000 ) ;
#365 = PERSON_AND_ORGANIZATION ( #237, #351 ) ;
#366 = DIRECTION ( 'NONE',  ( -8.336868109211585568E-18, -1.000000000000000000, 0.000000000000000000 ) ) ;
#367 = PERSON_AND_ORGANIZATION ( #237, #351 ) ;
#368 = COORDINATED_UNIVERSAL_TIME_OFFSET ( 1, 0, .AHEAD. ) ;
#369 = FACE_BOUND ( 'NONE', #117, .T. ) ;
#370 = ORIENTED_EDGE ( 'NONE', *, *, #164, .T. ) ;
#371 = PLANE ( 'NONE',  #377 ) ;
#372 = EDGE_LOOP ( 'NONE', ( #335 ) ) ;
#373 = FACE_OUTER_BOUND ( 'NONE', #215, .T. ) ;
#374 = ORIENTED_EDGE ( 'NONE', *, *, #404, .T. ) ;
#375 = CC_DESIGN_PERSON_AND_ORGANIZATION_ASSIGNMENT ( #228, #18, ( #68 ) ) ;
#376 = CIRCLE ( 'NONE', #250, 35.00000000000000000 ) ;
#377 = AXIS2_PLACEMENT_3D ( 'NONE', #23, #401, #84 ) ;
#378 = CARTESIAN_POINT ( 'NONE',  ( 1.521478429931114901E-16, 18.25000000000000355, 0.000000000000000000 ) ) ;
#379 = DIRECTION ( 'NONE',  ( -1.000000000000000000, 0.000000000000000000, 0.000000000000000000 ) ) ;
#380 = ADVANCED_FACE ( 'NONE', ( #258, #22 ), #91, .T. ) ;
#381 = VERTEX_POINT ( 'NONE', #193 ) ;
#382 = DIRECTION ( 'NONE',  ( 8.336868109211585568E-18, 1.000000000000000000, -0.000000000000000000 ) ) ;
#383 = DIRECTION ( 'NONE',  ( -1.000000000000000000, 0.000000000000000000, 0.000000000000000000 ) ) ;
#384 = VERTEX_POINT ( 'NONE', #155 ) ;
#385 = DIRECTION ( 'NONE',  ( 8.336868109211585568E-18, 1.000000000000000000, -0.000000000000000000 ) ) ;
#386 = CC_DESIGN_SECURITY_CLASSIFICATION ( #68, ( #57 ) ) ;
#387 = PLANE ( 'NONE',  #158 ) ;
#388 = VERTEX_POINT ( 'NONE', #104 ) ;
#389 = AXIS2_PLACEMENT_3D ( 'NONE', #218, #314, #251 ) ;
#390 = DIRECTION ( 'NONE',  ( -8.336868109211585568E-18, -1.000000000000000000, 0.000000000000000000 ) ) ;
#391 = DATE_AND_TIME ( #138, #189 ) ;
#392 = FACE_OUTER_BOUND ( 'NONE', #209, .T. ) ;
#393 = ADVANCED_FACE ( 'NONE', ( #373, #369 ), #371, .F. ) ;
#394 = CARTESIAN_POINT ( 'NONE',  ( 1.521478429931114901E-16, 18.25000000000000355, 0.000000000000000000 ) ) ;
#395 = CIRCLE ( 'NONE', #299, 38.00000000000000000 ) ;
#396 = CIRCLE ( 'NONE', #142, 38.00000000000000000 ) ;
#397 = DIRECTION ( 'NONE',  ( -8.336868109211585568E-18, -1.000000000000000000, 0.000000000000000000 ) ) ;
#398 = ORIENTED_EDGE ( 'NONE', *, *, #164, .F. ) ;
#399 = APPROVAL_DATE_TIME ( #166, #115 ) ;
#400 = PLANE ( 'NONE',  #38 ) ;
#401 = DIRECTION ( 'NONE',  ( 8.336868109211585568E-18, 1.000000000000000000, -0.000000000000000000 ) ) ;
#402 = EDGE_LOOP ( 'NONE', ( #123 ) ) ;
#403 = EDGE_LOOP ( 'NONE', ( #148 ) ) ;
#404 = EDGE_CURVE ( 'NONE', #41, #41, #214, .T. ) ;
#405 = EDGE_LOOP ( 'NONE', ( #303 ) ) ;
#406 = ORIENTED_EDGE ( 'NONE', *, *, #99, .F. ) ;
#407 = AXIS2_PLACEMENT_3D ( 'NONE', #356, #390, #139 ) ;
#408 = ADVANCED_FACE ( 'NONE', ( #296, #213 ), #400, .F. ) ;
#409 = DIRECTION ( 'NONE',  ( -1.000000000000000000, 8.336868109211585568E-18, 0.000000000000000000 ) ) ;
ENDSEC;
END-ISO-10303-21;
