ISO-10303-21;
HEADER;
FILE_DESCRIPTION(('STEP AP214'),'1');
FILE_NAME('cctmp_67ADE37B-A4A7-4CA7-9F4E-47F8AC40EE5A_2023_6_20_9_34_8_581..stp','2023-06-20T07:34:08',('Murtfeldt Kunststoffe GmbH & Co.KG'),('CADClick - www.CADClick.com'),'Spatial InterOp 3D',' ','unknown authorization');
FILE_SCHEMA(('AUTOMOTIVE_DESIGN'));
ENDSEC;
DATA;
#1=MECHANICAL_DESIGN_GEOMETRIC_PRESENTATION_REPRESENTATION(' ',(#10,#11,#12,#13,#14,#15,#16,#17,#18,#19,#20,#21,#22,#23,#24,#25,#26,#27,#28),#6);
#2=PRODUCT_DEFINITION_CONTEXT('',#29,'design');
#3=APPLICATION_PROTOCOL_DEFINITION('INTERNATIONAL STANDARD','automotive_design',1994,#29);
#4=PRODUCT_CATEGORY_RELATIONSHIP('NONE','NONE',#30,#31);
#5=SHAPE_DEFINITION_REPRESENTATION(#32,#33);
#6= (GEOMETRIC_REPRESENTATION_CONTEXT(3)GLOBAL_UNCERTAINTY_ASSIGNED_CONTEXT((#36))GLOBAL_UNIT_ASSIGNED_CONTEXT((#38,#39,#40))REPRESENTATION_CONTEXT('NONE','WORKSPACE'));
#10=STYLED_ITEM('',(#42),#43);
#11=STYLED_ITEM('',(#44),#45);
#12=STYLED_ITEM('',(#46),#47);
#13=STYLED_ITEM('',(#48),#49);
#14=STYLED_ITEM('',(#50),#51);
#15=STYLED_ITEM('',(#52),#53);
#16=STYLED_ITEM('',(#54),#55);
#17=STYLED_ITEM('',(#56),#57);
#18=STYLED_ITEM('',(#58),#59);
#19=STYLED_ITEM('',(#60),#61);
#20=STYLED_ITEM('',(#62),#63);
#21=STYLED_ITEM('',(#64),#65);
#22=STYLED_ITEM('',(#66),#67);
#23=STYLED_ITEM('',(#68),#69);
#24=STYLED_ITEM('',(#70),#71);
#25=STYLED_ITEM('',(#72),#73);
#26=STYLED_ITEM('',(#74),#75);
#27=STYLED_ITEM('',(#76),#77);
#28=STYLED_ITEM('',(#78),#79);
#29=APPLICATION_CONTEXT(' ');
#30=PRODUCT_CATEGORY('part','NONE');
#31=PRODUCT_RELATED_PRODUCT_CATEGORY('detail',' ',(#80));
#32=PRODUCT_DEFINITION_SHAPE('NONE','NONE',#81);
#33=ADVANCED_BREP_SHAPE_REPRESENTATION('221120038',(#79,#82),#6);
#36=UNCERTAINTY_MEASURE_WITH_UNIT(LENGTH_MEASURE(1.0E-006),#38,'','');
#38= (CONVERSION_BASED_UNIT('MILLIMETRE',#85)LENGTH_UNIT()NAMED_UNIT(#88));
#39= (NAMED_UNIT(#90)PLANE_ANGLE_UNIT()SI_UNIT($,.RADIAN.));
#40= (NAMED_UNIT(#90)SOLID_ANGLE_UNIT()SI_UNIT($,.STERADIAN.));
#42=PRESENTATION_STYLE_ASSIGNMENT((#96));
#43=ADVANCED_FACE('',(#97),#98,.T.);
#44=PRESENTATION_STYLE_ASSIGNMENT((#99));
#45=ADVANCED_FACE('',(#100),#101,.T.);
#46=PRESENTATION_STYLE_ASSIGNMENT((#102));
#47=ADVANCED_FACE('',(#103),#104,.T.);
#48=PRESENTATION_STYLE_ASSIGNMENT((#105));
#49=ADVANCED_FACE('',(#106),#107,.T.);
#50=PRESENTATION_STYLE_ASSIGNMENT((#108));
#51=ADVANCED_FACE('',(#109),#110,.T.);
#52=PRESENTATION_STYLE_ASSIGNMENT((#111));
#53=ADVANCED_FACE('',(#112),#113,.T.);
#54=PRESENTATION_STYLE_ASSIGNMENT((#114));
#55=ADVANCED_FACE('',(#115),#116,.T.);
#56=PRESENTATION_STYLE_ASSIGNMENT((#117));
#57=ADVANCED_FACE('',(#118),#119,.T.);
#58=PRESENTATION_STYLE_ASSIGNMENT((#120));
#59=ADVANCED_FACE('',(#121),#122,.T.);
#60=PRESENTATION_STYLE_ASSIGNMENT((#123));
#61=ADVANCED_FACE('',(#124),#125,.T.);
#62=PRESENTATION_STYLE_ASSIGNMENT((#126));
#63=ADVANCED_FACE('',(#127),#128,.T.);
#64=PRESENTATION_STYLE_ASSIGNMENT((#129));
#65=ADVANCED_FACE('',(#130),#131,.T.);
#66=PRESENTATION_STYLE_ASSIGNMENT((#132));
#67=ADVANCED_FACE('',(#133),#134,.T.);
#68=PRESENTATION_STYLE_ASSIGNMENT((#135));
#69=ADVANCED_FACE('',(#136),#137,.T.);
#70=PRESENTATION_STYLE_ASSIGNMENT((#138));
#71=ADVANCED_FACE('',(#139),#140,.T.);
#72=PRESENTATION_STYLE_ASSIGNMENT((#141));
#73=ADVANCED_FACE('',(#142),#143,.T.);
#74=PRESENTATION_STYLE_ASSIGNMENT((#144));
#75=ADVANCED_FACE('',(#145),#146,.T.);
#76=PRESENTATION_STYLE_ASSIGNMENT((#147));
#77=ADVANCED_FACE('',(#148),#149,.F.);
#78=PRESENTATION_STYLE_ASSIGNMENT((#150));
#79=MANIFOLD_SOLID_BREP('221120038',#151);
#80=PRODUCT('221120038','','PART--DESC',(#152));
#81=PRODUCT_DEFINITION('','NONE',#153,#2);
#82=AXIS2_PLACEMENT_3D('',#154,#155,#156);
#85=LENGTH_MEASURE_WITH_UNIT(LENGTH_MEASURE(1.0),#157);
#88=DIMENSIONAL_EXPONENTS(1.0,0.0,0.0,0.0,0.0,0.0,0.0);
#90=DIMENSIONAL_EXPONENTS(0.0,0.0,0.0,0.0,0.0,0.0,0.0);
#96=SURFACE_STYLE_USAGE(.BOTH.,#158);
#97=FACE_OUTER_BOUND('',#159,.T.);
#98=PLANE('',#160);
#99=SURFACE_STYLE_USAGE(.BOTH.,#161);
#100=FACE_OUTER_BOUND('',#162,.T.);
#101=PLANE('',#163);
#102=SURFACE_STYLE_USAGE(.BOTH.,#164);
#103=FACE_OUTER_BOUND('',#165,.T.);
#104=PLANE('',#166);
#105=SURFACE_STYLE_USAGE(.BOTH.,#167);
#106=FACE_OUTER_BOUND('',#168,.T.);
#107=PLANE('',#169);
#108=SURFACE_STYLE_USAGE(.BOTH.,#170);
#109=FACE_OUTER_BOUND('',#171,.T.);
#110=PLANE('',#172);
#111=SURFACE_STYLE_USAGE(.BOTH.,#173);
#112=FACE_OUTER_BOUND('',#174,.T.);
#113=PLANE('',#175);
#114=SURFACE_STYLE_USAGE(.BOTH.,#176);
#115=FACE_OUTER_BOUND('',#177,.T.);
#116=PLANE('',#178);
#117=SURFACE_STYLE_USAGE(.BOTH.,#179);
#118=FACE_OUTER_BOUND('',#180,.T.);
#119=PLANE('',#181);
#120=SURFACE_STYLE_USAGE(.BOTH.,#182);
#121=FACE_OUTER_BOUND('',#183,.T.);
#122=PLANE('',#184);
#123=SURFACE_STYLE_USAGE(.BOTH.,#185);
#124=FACE_OUTER_BOUND('',#186,.T.);
#125=PLANE('',#187);
#126=SURFACE_STYLE_USAGE(.BOTH.,#188);
#127=FACE_OUTER_BOUND('',#189,.T.);
#128=PLANE('',#190);
#129=SURFACE_STYLE_USAGE(.BOTH.,#191);
#130=FACE_OUTER_BOUND('',#192,.T.);
#131=PLANE('',#193);
#132=SURFACE_STYLE_USAGE(.BOTH.,#194);
#133=FACE_OUTER_BOUND('',#195,.T.);
#134=PLANE('',#196);
#135=SURFACE_STYLE_USAGE(.BOTH.,#197);
#136=FACE_OUTER_BOUND('',#198,.T.);
#137=PLANE('',#199);
#138=SURFACE_STYLE_USAGE(.BOTH.,#200);
#139=FACE_OUTER_BOUND('',#201,.T.);
#140=PLANE('',#202);
#141=SURFACE_STYLE_USAGE(.BOTH.,#203);
#142=FACE_OUTER_BOUND('',#204,.T.);
#143=PLANE('',#205);
#144=SURFACE_STYLE_USAGE(.BOTH.,#206);
#145=FACE_OUTER_BOUND('',#207,.T.);
#146=PLANE('',#208);
#147=SURFACE_STYLE_USAGE(.BOTH.,#209);
#148=FACE_OUTER_BOUND('',#210,.T.);
#149=PLANE('',#211);
#150=SURFACE_STYLE_USAGE(.BOTH.,#212);
#151=CLOSED_SHELL('',(#43,#45,#47,#49,#51,#53,#55,#57,#59,#61,#63,#65,#67,#69,#71,#73,#75,#77));
#152=PRODUCT_CONTEXT('',#29,'mechanical');
#153=PRODUCT_DEFINITION_FORMATION_WITH_SPECIFIED_SOURCE(' ','NONE',#80,.NOT_KNOWN.);
#154=CARTESIAN_POINT('',(0.0,0.0,0.0));
#155=DIRECTION('',(0.0,0.0,1.0));
#156=DIRECTION('',(1.0,0.0,0.0));
#157= (NAMED_UNIT(#88)LENGTH_UNIT()SI_UNIT(.MILLI.,.METRE.));
#158=SURFACE_SIDE_STYLE('',(#214));
#159=EDGE_LOOP('',(#215,#216,#217,#218));
#160=AXIS2_PLACEMENT_3D('',#219,#220,#221);
#161=SURFACE_SIDE_STYLE('',(#222));
#162=EDGE_LOOP('',(#223,#224,#225,#226));
#163=AXIS2_PLACEMENT_3D('',#227,#228,#229);
#164=SURFACE_SIDE_STYLE('',(#230));
#165=EDGE_LOOP('',(#231,#232,#233,#234));
#166=AXIS2_PLACEMENT_3D('',#235,#236,#237);
#167=SURFACE_SIDE_STYLE('',(#238));
#168=EDGE_LOOP('',(#239,#240,#241,#242));
#169=AXIS2_PLACEMENT_3D('',#243,#244,#245);
#170=SURFACE_SIDE_STYLE('',(#246));
#171=EDGE_LOOP('',(#247,#248,#249,#250));
#172=AXIS2_PLACEMENT_3D('',#251,#252,#253);
#173=SURFACE_SIDE_STYLE('',(#254));
#174=EDGE_LOOP('',(#255,#256,#257,#258));
#175=AXIS2_PLACEMENT_3D('',#259,#260,#261);
#176=SURFACE_SIDE_STYLE('',(#262));
#177=EDGE_LOOP('',(#263,#264,#265,#266));
#178=AXIS2_PLACEMENT_3D('',#267,#268,#269);
#179=SURFACE_SIDE_STYLE('',(#270));
#180=EDGE_LOOP('',(#271,#272,#273,#274));
#181=AXIS2_PLACEMENT_3D('',#275,#276,#277);
#182=SURFACE_SIDE_STYLE('',(#278));
#183=EDGE_LOOP('',(#279,#280,#281,#282));
#184=AXIS2_PLACEMENT_3D('',#283,#284,#285);
#185=SURFACE_SIDE_STYLE('',(#286));
#186=EDGE_LOOP('',(#287,#288,#289,#290));
#187=AXIS2_PLACEMENT_3D('',#291,#292,#293);
#188=SURFACE_SIDE_STYLE('',(#294));
#189=EDGE_LOOP('',(#295,#296,#297,#298));
#190=AXIS2_PLACEMENT_3D('',#299,#300,#301);
#191=SURFACE_SIDE_STYLE('',(#302));
#192=EDGE_LOOP('',(#303,#304,#305,#306));
#193=AXIS2_PLACEMENT_3D('',#307,#308,#309);
#194=SURFACE_SIDE_STYLE('',(#310));
#195=EDGE_LOOP('',(#311,#312,#313,#314));
#196=AXIS2_PLACEMENT_3D('',#315,#316,#317);
#197=SURFACE_SIDE_STYLE('',(#318));
#198=EDGE_LOOP('',(#319,#320,#321,#322));
#199=AXIS2_PLACEMENT_3D('',#323,#324,#325);
#200=SURFACE_SIDE_STYLE('',(#326));
#201=EDGE_LOOP('',(#327,#328,#329,#330));
#202=AXIS2_PLACEMENT_3D('',#331,#332,#333);
#203=SURFACE_SIDE_STYLE('',(#334));
#204=EDGE_LOOP('',(#335,#336,#337,#338));
#205=AXIS2_PLACEMENT_3D('',#339,#340,#341);
#206=SURFACE_SIDE_STYLE('',(#342));
#207=EDGE_LOOP('',(#343,#344,#345,#346,#347,#348,#349,#350,#351,#352,#353,#354,#355,#356,#357,#358));
#208=AXIS2_PLACEMENT_3D('',#359,#360,#361);
#209=SURFACE_SIDE_STYLE('',(#362));
#210=EDGE_LOOP('',(#363,#364,#365,#366,#367,#368,#369,#370,#371,#372,#373,#374,#375,#376,#377,#378));
#211=AXIS2_PLACEMENT_3D('',#379,#380,#381);
#212=SURFACE_SIDE_STYLE('',(#382));
#214=SURFACE_STYLE_FILL_AREA(#383);
#215=ORIENTED_EDGE('',*,*,#384,.T.);
#216=ORIENTED_EDGE('',*,*,#385,.F.);
#217=ORIENTED_EDGE('',*,*,#386,.F.);
#218=ORIENTED_EDGE('',*,*,#387,.T.);
#219=CARTESIAN_POINT('',(8.5,2000.0,22.0));
#220=DIRECTION('',(-1.0,0.0,0.0));
#221=DIRECTION('',(0.0,0.0,-1.0));
#222=SURFACE_STYLE_FILL_AREA(#388);
#223=ORIENTED_EDGE('',*,*,#389,.T.);
#224=ORIENTED_EDGE('',*,*,#390,.F.);
#225=ORIENTED_EDGE('',*,*,#391,.F.);
#226=ORIENTED_EDGE('',*,*,#385,.T.);
#227=CARTESIAN_POINT('',(14.5,2000.0,23.0));
#228=DIRECTION('',(0.0,0.0,1.0));
#229=DIRECTION('',(-1.0,0.0,-0.0));
#230=SURFACE_STYLE_FILL_AREA(#392);
#231=ORIENTED_EDGE('',*,*,#393,.T.);
#232=ORIENTED_EDGE('',*,*,#394,.F.);
#233=ORIENTED_EDGE('',*,*,#395,.F.);
#234=ORIENTED_EDGE('',*,*,#390,.T.);
#235=CARTESIAN_POINT('',(20.5,2000.0,31.5));
#236=DIRECTION('',(-1.0,0.0,0.0));
#237=DIRECTION('',(0.0,0.0,-1.0));
#238=SURFACE_STYLE_FILL_AREA(#396);
#239=ORIENTED_EDGE('',*,*,#397,.T.);
#240=ORIENTED_EDGE('',*,*,#398,.F.);
#241=ORIENTED_EDGE('',*,*,#399,.F.);
#242=ORIENTED_EDGE('',*,*,#394,.T.);
#243=CARTESIAN_POINT('',(17.75,2000.0,40.0));
#244=DIRECTION('',(0.0,0.0,-1.0));
#245=DIRECTION('',(1.0,0.0,0.0));
#246=SURFACE_STYLE_FILL_AREA(#400);
#247=ORIENTED_EDGE('',*,*,#401,.T.);
#248=ORIENTED_EDGE('',*,*,#402,.F.);
#249=ORIENTED_EDGE('',*,*,#403,.F.);
#250=ORIENTED_EDGE('',*,*,#398,.T.);
#251=CARTESIAN_POINT('',(15.0,2000.0,55.0));
#252=DIRECTION('',(-1.0,0.0,0.0));
#253=DIRECTION('',(0.0,0.0,-1.0));
#254=SURFACE_STYLE_FILL_AREA(#404);
#255=ORIENTED_EDGE('',*,*,#405,.T.);
#256=ORIENTED_EDGE('',*,*,#406,.F.);
#257=ORIENTED_EDGE('',*,*,#407,.F.);
#258=ORIENTED_EDGE('',*,*,#402,.T.);
#259=CARTESIAN_POINT('',(22.5,2000.0,70.0));
#260=DIRECTION('',(0.0,0.0,1.0));
#261=DIRECTION('',(-1.0,0.0,-0.0));
#262=SURFACE_STYLE_FILL_AREA(#408);
#263=ORIENTED_EDGE('',*,*,#409,.T.);
#264=ORIENTED_EDGE('',*,*,#410,.F.);
#265=ORIENTED_EDGE('',*,*,#411,.F.);
#266=ORIENTED_EDGE('',*,*,#406,.T.);
#267=CARTESIAN_POINT('',(30.0,2000.0,35.0));
#268=DIRECTION('',(1.0,0.0,-0.0));
#269=DIRECTION('',(0.0,0.0,1.0));
#270=SURFACE_STYLE_FILL_AREA(#412);
#271=ORIENTED_EDGE('',*,*,#413,.T.);
#272=ORIENTED_EDGE('',*,*,#414,.F.);
#273=ORIENTED_EDGE('',*,*,#415,.F.);
#274=ORIENTED_EDGE('',*,*,#410,.T.);
#275=CARTESIAN_POINT('',(0.0,2000.0,0.0));
#276=DIRECTION('',(0.0,0.0,-1.0));
#277=DIRECTION('',(1.0,0.0,0.0));
#278=SURFACE_STYLE_FILL_AREA(#416);
#279=ORIENTED_EDGE('',*,*,#417,.T.);
#280=ORIENTED_EDGE('',*,*,#418,.F.);
#281=ORIENTED_EDGE('',*,*,#419,.F.);
#282=ORIENTED_EDGE('',*,*,#414,.T.);
#283=CARTESIAN_POINT('',(-30.0,2000.0,35.0));
#284=DIRECTION('',(-1.0,0.0,0.0));
#285=DIRECTION('',(0.0,0.0,-1.0));
#286=SURFACE_STYLE_FILL_AREA(#420);
#287=ORIENTED_EDGE('',*,*,#421,.T.);
#288=ORIENTED_EDGE('',*,*,#422,.F.);
#289=ORIENTED_EDGE('',*,*,#423,.F.);
#290=ORIENTED_EDGE('',*,*,#418,.T.);
#291=CARTESIAN_POINT('',(-22.5,2000.0,70.0));
#292=DIRECTION('',(0.0,0.0,1.0));
#293=DIRECTION('',(-1.0,0.0,-0.0));
#294=SURFACE_STYLE_FILL_AREA(#424);
#295=ORIENTED_EDGE('',*,*,#425,.T.);
#296=ORIENTED_EDGE('',*,*,#426,.F.);
#297=ORIENTED_EDGE('',*,*,#427,.F.);
#298=ORIENTED_EDGE('',*,*,#422,.T.);
#299=CARTESIAN_POINT('',(-15.0,2000.0,55.0));
#300=DIRECTION('',(1.0,0.0,-0.0));
#301=DIRECTION('',(0.0,0.0,1.0));
#302=SURFACE_STYLE_FILL_AREA(#428);
#303=ORIENTED_EDGE('',*,*,#429,.T.);
#304=ORIENTED_EDGE('',*,*,#430,.F.);
#305=ORIENTED_EDGE('',*,*,#431,.F.);
#306=ORIENTED_EDGE('',*,*,#426,.T.);
#307=CARTESIAN_POINT('',(-17.75,2000.0,40.0));
#308=DIRECTION('',(0.0,0.0,-1.0));
#309=DIRECTION('',(1.0,0.0,0.0));
#310=SURFACE_STYLE_FILL_AREA(#432);
#311=ORIENTED_EDGE('',*,*,#433,.T.);
#312=ORIENTED_EDGE('',*,*,#434,.F.);
#313=ORIENTED_EDGE('',*,*,#435,.F.);
#314=ORIENTED_EDGE('',*,*,#430,.T.);
#315=CARTESIAN_POINT('',(-20.5,2000.0,31.5));
#316=DIRECTION('',(1.0,0.0,-0.0));
#317=DIRECTION('',(0.0,0.0,1.0));
#318=SURFACE_STYLE_FILL_AREA(#436);
#319=ORIENTED_EDGE('',*,*,#437,.T.);
#320=ORIENTED_EDGE('',*,*,#438,.F.);
#321=ORIENTED_EDGE('',*,*,#439,.F.);
#322=ORIENTED_EDGE('',*,*,#434,.T.);
#323=CARTESIAN_POINT('',(-14.5,2000.0,23.0));
#324=DIRECTION('',(0.0,0.0,1.0));
#325=DIRECTION('',(-1.0,0.0,-0.0));
#326=SURFACE_STYLE_FILL_AREA(#440);
#327=ORIENTED_EDGE('',*,*,#441,.T.);
#328=ORIENTED_EDGE('',*,*,#442,.F.);
#329=ORIENTED_EDGE('',*,*,#443,.F.);
#330=ORIENTED_EDGE('',*,*,#438,.T.);
#331=CARTESIAN_POINT('',(-8.5,2000.0,22.0));
#332=DIRECTION('',(1.0,0.0,-0.0));
#333=DIRECTION('',(0.0,0.0,1.0));
#334=SURFACE_STYLE_FILL_AREA(#444);
#335=ORIENTED_EDGE('',*,*,#445,.T.);
#336=ORIENTED_EDGE('',*,*,#387,.F.);
#337=ORIENTED_EDGE('',*,*,#446,.F.);
#338=ORIENTED_EDGE('',*,*,#442,.T.);
#339=CARTESIAN_POINT('',(4.25,2000.0,21.0));
#340=DIRECTION('',(0.0,0.0,1.0));
#341=DIRECTION('',(-1.0,0.0,-0.0));
#342=SURFACE_STYLE_FILL_AREA(#447);
#343=ORIENTED_EDGE('',*,*,#384,.F.);
#344=ORIENTED_EDGE('',*,*,#445,.F.);
#345=ORIENTED_EDGE('',*,*,#441,.F.);
#346=ORIENTED_EDGE('',*,*,#437,.F.);
#347=ORIENTED_EDGE('',*,*,#433,.F.);
#348=ORIENTED_EDGE('',*,*,#429,.F.);
#349=ORIENTED_EDGE('',*,*,#425,.F.);
#350=ORIENTED_EDGE('',*,*,#421,.F.);
#351=ORIENTED_EDGE('',*,*,#417,.F.);
#352=ORIENTED_EDGE('',*,*,#413,.F.);
#353=ORIENTED_EDGE('',*,*,#409,.F.);
#354=ORIENTED_EDGE('',*,*,#405,.F.);
#355=ORIENTED_EDGE('',*,*,#401,.F.);
#356=ORIENTED_EDGE('',*,*,#397,.F.);
#357=ORIENTED_EDGE('',*,*,#393,.F.);
#358=ORIENTED_EDGE('',*,*,#389,.F.);
#359=CARTESIAN_POINT('',(6.93889390390723E-016,0.0,33.7052631578947));
#360=DIRECTION('',(0.0,-1.0,0.0));
#361=DIRECTION('',(1.0,0.0,0.0));
#362=SURFACE_STYLE_FILL_AREA(#448);
#363=ORIENTED_EDGE('',*,*,#446,.T.);
#364=ORIENTED_EDGE('',*,*,#386,.T.);
#365=ORIENTED_EDGE('',*,*,#391,.T.);
#366=ORIENTED_EDGE('',*,*,#395,.T.);
#367=ORIENTED_EDGE('',*,*,#399,.T.);
#368=ORIENTED_EDGE('',*,*,#403,.T.);
#369=ORIENTED_EDGE('',*,*,#407,.T.);
#370=ORIENTED_EDGE('',*,*,#411,.T.);
#371=ORIENTED_EDGE('',*,*,#415,.T.);
#372=ORIENTED_EDGE('',*,*,#419,.T.);
#373=ORIENTED_EDGE('',*,*,#423,.T.);
#374=ORIENTED_EDGE('',*,*,#427,.T.);
#375=ORIENTED_EDGE('',*,*,#431,.T.);
#376=ORIENTED_EDGE('',*,*,#435,.T.);
#377=ORIENTED_EDGE('',*,*,#439,.T.);
#378=ORIENTED_EDGE('',*,*,#443,.T.);
#379=CARTESIAN_POINT('',(-3.05311331771918E-016,2000.0,33.7052631578947));
#380=DIRECTION('',(0.0,-1.0,0.0));
#381=DIRECTION('',(1.0,0.0,0.0));
#382=SURFACE_STYLE_FILL_AREA(#449);
#383=FILL_AREA_STYLE('',(#450));
#384=EDGE_CURVE('',#451,#452,#453,.T.);
#385=EDGE_CURVE('',#454,#452,#455,.T.);
#386=EDGE_CURVE('',#456,#454,#457,.T.);
#387=EDGE_CURVE('',#456,#451,#458,.T.);
#388=FILL_AREA_STYLE('',(#459));
#389=EDGE_CURVE('',#452,#460,#461,.T.);
#390=EDGE_CURVE('',#462,#460,#463,.T.);
#391=EDGE_CURVE('',#454,#462,#464,.T.);
#392=FILL_AREA_STYLE('',(#465));
#393=EDGE_CURVE('',#460,#466,#467,.T.);
#394=EDGE_CURVE('',#468,#466,#469,.T.);
#395=EDGE_CURVE('',#462,#468,#470,.T.);
#396=FILL_AREA_STYLE('',(#471));
#397=EDGE_CURVE('',#466,#472,#473,.T.);
#398=EDGE_CURVE('',#474,#472,#475,.T.);
#399=EDGE_CURVE('',#468,#474,#476,.T.);
#400=FILL_AREA_STYLE('',(#477));
#401=EDGE_CURVE('',#472,#478,#479,.T.);
#402=EDGE_CURVE('',#480,#478,#481,.T.);
#403=EDGE_CURVE('',#474,#480,#482,.T.);
#404=FILL_AREA_STYLE('',(#483));
#405=EDGE_CURVE('',#478,#484,#485,.T.);
#406=EDGE_CURVE('',#486,#484,#487,.T.);
#407=EDGE_CURVE('',#480,#486,#488,.T.);
#408=FILL_AREA_STYLE('',(#489));
#409=EDGE_CURVE('',#484,#490,#491,.T.);
#410=EDGE_CURVE('',#492,#490,#493,.T.);
#411=EDGE_CURVE('',#486,#492,#494,.T.);
#412=FILL_AREA_STYLE('',(#495));
#413=EDGE_CURVE('',#490,#496,#497,.T.);
#414=EDGE_CURVE('',#498,#496,#499,.T.);
#415=EDGE_CURVE('',#492,#498,#500,.T.);
#416=FILL_AREA_STYLE('',(#501));
#417=EDGE_CURVE('',#496,#502,#503,.T.);
#418=EDGE_CURVE('',#504,#502,#505,.T.);
#419=EDGE_CURVE('',#498,#504,#506,.T.);
#420=FILL_AREA_STYLE('',(#507));
#421=EDGE_CURVE('',#502,#508,#509,.T.);
#422=EDGE_CURVE('',#510,#508,#511,.T.);
#423=EDGE_CURVE('',#504,#510,#512,.T.);
#424=FILL_AREA_STYLE('',(#513));
#425=EDGE_CURVE('',#508,#514,#515,.T.);
#426=EDGE_CURVE('',#516,#514,#517,.T.);
#427=EDGE_CURVE('',#510,#516,#518,.T.);
#428=FILL_AREA_STYLE('',(#519));
#429=EDGE_CURVE('',#514,#520,#521,.T.);
#430=EDGE_CURVE('',#522,#520,#523,.T.);
#431=EDGE_CURVE('',#516,#522,#524,.T.);
#432=FILL_AREA_STYLE('',(#525));
#433=EDGE_CURVE('',#520,#526,#527,.T.);
#434=EDGE_CURVE('',#528,#526,#529,.T.);
#435=EDGE_CURVE('',#522,#528,#530,.T.);
#436=FILL_AREA_STYLE('',(#531));
#437=EDGE_CURVE('',#526,#532,#533,.T.);
#438=EDGE_CURVE('',#534,#532,#535,.T.);
#439=EDGE_CURVE('',#528,#534,#536,.T.);
#440=FILL_AREA_STYLE('',(#537));
#441=EDGE_CURVE('',#532,#538,#539,.T.);
#442=EDGE_CURVE('',#540,#538,#541,.T.);
#443=EDGE_CURVE('',#534,#540,#542,.T.);
#444=FILL_AREA_STYLE('',(#543));
#445=EDGE_CURVE('',#538,#451,#544,.T.);
#446=EDGE_CURVE('',#540,#456,#545,.T.);
#447=FILL_AREA_STYLE('',(#546));
#448=FILL_AREA_STYLE('',(#547));
#449=FILL_AREA_STYLE('',(#548));
#450=FILL_AREA_STYLE_COLOUR('',#549);
#451=VERTEX_POINT('',#550);
#452=VERTEX_POINT('',#551);
#453=LINE('',#552,#553);
#454=VERTEX_POINT('',#554);
#455=LINE('',#555,#556);
#456=VERTEX_POINT('',#557);
#457=LINE('',#558,#559);
#458=LINE('',#560,#561);
#459=FILL_AREA_STYLE_COLOUR('',#562);
#460=VERTEX_POINT('',#563);
#461=LINE('',#564,#565);
#462=VERTEX_POINT('',#566);
#463=LINE('',#567,#568);
#464=LINE('',#569,#570);
#465=FILL_AREA_STYLE_COLOUR('',#571);
#466=VERTEX_POINT('',#572);
#467=LINE('',#573,#574);
#468=VERTEX_POINT('',#575);
#469=LINE('',#576,#577);
#470=LINE('',#578,#579);
#471=FILL_AREA_STYLE_COLOUR('',#580);
#472=VERTEX_POINT('',#581);
#473=LINE('',#582,#583);
#474=VERTEX_POINT('',#584);
#475=LINE('',#585,#586);
#476=LINE('',#587,#588);
#477=FILL_AREA_STYLE_COLOUR('',#589);
#478=VERTEX_POINT('',#590);
#479=LINE('',#591,#592);
#480=VERTEX_POINT('',#593);
#481=LINE('',#594,#595);
#482=LINE('',#596,#597);
#483=FILL_AREA_STYLE_COLOUR('',#598);
#484=VERTEX_POINT('',#599);
#485=LINE('',#600,#601);
#486=VERTEX_POINT('',#602);
#487=LINE('',#603,#604);
#488=LINE('',#605,#606);
#489=FILL_AREA_STYLE_COLOUR('',#607);
#490=VERTEX_POINT('',#608);
#491=LINE('',#609,#610);
#492=VERTEX_POINT('',#611);
#493=LINE('',#612,#613);
#494=LINE('',#614,#615);
#495=FILL_AREA_STYLE_COLOUR('',#616);
#496=VERTEX_POINT('',#617);
#497=LINE('',#618,#619);
#498=VERTEX_POINT('',#620);
#499=LINE('',#621,#622);
#500=LINE('',#623,#624);
#501=FILL_AREA_STYLE_COLOUR('',#625);
#502=VERTEX_POINT('',#626);
#503=LINE('',#627,#628);
#504=VERTEX_POINT('',#629);
#505=LINE('',#630,#631);
#506=LINE('',#632,#633);
#507=FILL_AREA_STYLE_COLOUR('',#634);
#508=VERTEX_POINT('',#635);
#509=LINE('',#636,#637);
#510=VERTEX_POINT('',#638);
#511=LINE('',#639,#640);
#512=LINE('',#641,#642);
#513=FILL_AREA_STYLE_COLOUR('',#643);
#514=VERTEX_POINT('',#644);
#515=LINE('',#645,#646);
#516=VERTEX_POINT('',#647);
#517=LINE('',#648,#649);
#518=LINE('',#650,#651);
#519=FILL_AREA_STYLE_COLOUR('',#652);
#520=VERTEX_POINT('',#653);
#521=LINE('',#654,#655);
#522=VERTEX_POINT('',#656);
#523=LINE('',#657,#658);
#524=LINE('',#659,#660);
#525=FILL_AREA_STYLE_COLOUR('',#661);
#526=VERTEX_POINT('',#662);
#527=LINE('',#663,#664);
#528=VERTEX_POINT('',#665);
#529=LINE('',#666,#667);
#530=LINE('',#668,#669);
#531=FILL_AREA_STYLE_COLOUR('',#670);
#532=VERTEX_POINT('',#671);
#533=LINE('',#672,#673);
#534=VERTEX_POINT('',#674);
#535=LINE('',#675,#676);
#536=LINE('',#677,#678);
#537=FILL_AREA_STYLE_COLOUR('',#679);
#538=VERTEX_POINT('',#680);
#539=LINE('',#681,#682);
#540=VERTEX_POINT('',#683);
#541=LINE('',#684,#685);
#542=LINE('',#686,#687);
#543=FILL_AREA_STYLE_COLOUR('',#688);
#544=LINE('',#689,#690);
#545=LINE('',#691,#692);
#546=FILL_AREA_STYLE_COLOUR('',#693);
#547=FILL_AREA_STYLE_COLOUR('',#694);
#548=FILL_AREA_STYLE_COLOUR('',#695);
#549=COLOUR_RGB('',0.141176477074623,0.5686274766922,0.250980406999588);
#550=CARTESIAN_POINT('',(8.5,0.0,21.0));
#551=CARTESIAN_POINT('',(8.5,0.0,23.0));
#552=CARTESIAN_POINT('',(8.5,0.0,21.0));
#553=VECTOR('',#696,1.0);
#554=CARTESIAN_POINT('',(8.5,2000.0,23.0));
#555=CARTESIAN_POINT('',(8.5,2000.0,23.0));
#556=VECTOR('',#697,1.0);
#557=CARTESIAN_POINT('',(8.5,2000.0,21.0));
#558=CARTESIAN_POINT('',(8.5,2000.0,21.0));
#559=VECTOR('',#698,1.0);
#560=CARTESIAN_POINT('',(8.5,2000.0,21.0));
#561=VECTOR('',#699,1.0);
#562=COLOUR_RGB('',0.141176477074623,0.5686274766922,0.250980406999588);
#563=CARTESIAN_POINT('',(20.5,0.0,23.0));
#564=CARTESIAN_POINT('',(8.5,0.0,23.0));
#565=VECTOR('',#700,1.0);
#566=CARTESIAN_POINT('',(20.5,2000.0,23.0));
#567=CARTESIAN_POINT('',(20.5,2000.0,23.0));
#568=VECTOR('',#701,1.0);
#569=CARTESIAN_POINT('',(8.5,2000.0,23.0));
#570=VECTOR('',#702,1.0);
#571=COLOUR_RGB('',0.141176477074623,0.5686274766922,0.250980406999588);
#572=CARTESIAN_POINT('',(20.5,0.0,40.0));
#573=CARTESIAN_POINT('',(20.5,0.0,23.0));
#574=VECTOR('',#703,1.0);
#575=CARTESIAN_POINT('',(20.5,2000.0,40.0));
#576=CARTESIAN_POINT('',(20.5,2000.0,40.0));
#577=VECTOR('',#704,1.0);
#578=CARTESIAN_POINT('',(20.5,2000.0,23.0));
#579=VECTOR('',#705,1.0);
#580=COLOUR_RGB('',0.141176477074623,0.5686274766922,0.250980406999588);
#581=CARTESIAN_POINT('',(15.0,0.0,40.0));
#582=CARTESIAN_POINT('',(20.5,0.0,40.0));
#583=VECTOR('',#706,1.0);
#584=CARTESIAN_POINT('',(15.0,2000.0,40.0));
#585=CARTESIAN_POINT('',(15.0,2000.0,40.0));
#586=VECTOR('',#707,1.0);
#587=CARTESIAN_POINT('',(20.5,2000.0,40.0));
#588=VECTOR('',#708,1.0);
#589=COLOUR_RGB('',0.141176477074623,0.5686274766922,0.250980406999588);
#590=CARTESIAN_POINT('',(15.0,0.0,70.0));
#591=CARTESIAN_POINT('',(15.0,0.0,40.0));
#592=VECTOR('',#709,1.0);
#593=CARTESIAN_POINT('',(15.0,2000.0,70.0));
#594=CARTESIAN_POINT('',(15.0,2000.0,70.0));
#595=VECTOR('',#710,1.0);
#596=CARTESIAN_POINT('',(15.0,2000.0,40.0));
#597=VECTOR('',#711,1.0);
#598=COLOUR_RGB('',0.141176477074623,0.5686274766922,0.250980406999588);
#599=CARTESIAN_POINT('',(30.0,0.0,70.0));
#600=CARTESIAN_POINT('',(15.0,0.0,70.0));
#601=VECTOR('',#712,1.0);
#602=CARTESIAN_POINT('',(30.0,2000.0,70.0));
#603=CARTESIAN_POINT('',(30.0,2000.0,70.0));
#604=VECTOR('',#713,1.0);
#605=CARTESIAN_POINT('',(15.0,2000.0,70.0));
#606=VECTOR('',#714,1.0);
#607=COLOUR_RGB('',0.141176477074623,0.5686274766922,0.250980406999588);
#608=CARTESIAN_POINT('',(30.0,0.0,0.0));
#609=CARTESIAN_POINT('',(30.0,0.0,70.0));
#610=VECTOR('',#715,1.0);
#611=CARTESIAN_POINT('',(30.0,2000.0,0.0));
#612=CARTESIAN_POINT('',(30.0,2000.0,0.0));
#613=VECTOR('',#716,1.0);
#614=CARTESIAN_POINT('',(30.0,2000.0,70.0));
#615=VECTOR('',#717,1.0);
#616=COLOUR_RGB('',0.141176477074623,0.5686274766922,0.250980406999588);
#617=CARTESIAN_POINT('',(-30.0,0.0,0.0));
#618=CARTESIAN_POINT('',(30.0,0.0,0.0));
#619=VECTOR('',#718,1.0);
#620=CARTESIAN_POINT('',(-30.0,2000.0,0.0));
#621=CARTESIAN_POINT('',(-30.0,2000.0,0.0));
#622=VECTOR('',#719,1.0);
#623=CARTESIAN_POINT('',(30.0,2000.0,0.0));
#624=VECTOR('',#720,1.0);
#625=COLOUR_RGB('',0.141176477074623,0.5686274766922,0.250980406999588);
#626=CARTESIAN_POINT('',(-30.0,0.0,70.0));
#627=CARTESIAN_POINT('',(-30.0,0.0,0.0));
#628=VECTOR('',#721,1.0);
#629=CARTESIAN_POINT('',(-30.0,2000.0,70.0));
#630=CARTESIAN_POINT('',(-30.0,2000.0,70.0));
#631=VECTOR('',#722,1.0);
#632=CARTESIAN_POINT('',(-30.0,2000.0,0.0));
#633=VECTOR('',#723,1.0);
#634=COLOUR_RGB('',0.141176477074623,0.5686274766922,0.250980406999588);
#635=CARTESIAN_POINT('',(-15.0,0.0,70.0));
#636=CARTESIAN_POINT('',(-30.0,0.0,70.0));
#637=VECTOR('',#724,1.0);
#638=CARTESIAN_POINT('',(-15.0,2000.0,70.0));
#639=CARTESIAN_POINT('',(-15.0,2000.0,70.0));
#640=VECTOR('',#725,1.0);
#641=CARTESIAN_POINT('',(-30.0,2000.0,70.0));
#642=VECTOR('',#726,1.0);
#643=COLOUR_RGB('',0.141176477074623,0.5686274766922,0.250980406999588);
#644=CARTESIAN_POINT('',(-15.0,0.0,40.0));
#645=CARTESIAN_POINT('',(-15.0,0.0,70.0));
#646=VECTOR('',#727,1.0);
#647=CARTESIAN_POINT('',(-15.0,2000.0,40.0));
#648=CARTESIAN_POINT('',(-15.0,2000.0,40.0));
#649=VECTOR('',#728,1.0);
#650=CARTESIAN_POINT('',(-15.0,2000.0,70.0));
#651=VECTOR('',#729,1.0);
#652=COLOUR_RGB('',0.141176477074623,0.5686274766922,0.250980406999588);
#653=CARTESIAN_POINT('',(-20.5,0.0,40.0));
#654=CARTESIAN_POINT('',(-15.0,0.0,40.0));
#655=VECTOR('',#730,1.0);
#656=CARTESIAN_POINT('',(-20.5,2000.0,40.0));
#657=CARTESIAN_POINT('',(-20.5,2000.0,40.0));
#658=VECTOR('',#731,1.0);
#659=CARTESIAN_POINT('',(-15.0,2000.0,40.0));
#660=VECTOR('',#732,1.0);
#661=COLOUR_RGB('',0.141176477074623,0.5686274766922,0.250980406999588);
#662=CARTESIAN_POINT('',(-20.5,0.0,23.0));
#663=CARTESIAN_POINT('',(-20.5,0.0,40.0));
#664=VECTOR('',#733,1.0);
#665=CARTESIAN_POINT('',(-20.5,2000.0,23.0));
#666=CARTESIAN_POINT('',(-20.5,2000.0,23.0));
#667=VECTOR('',#734,1.0);
#668=CARTESIAN_POINT('',(-20.5,2000.0,40.0));
#669=VECTOR('',#735,1.0);
#670=COLOUR_RGB('',0.141176477074623,0.5686274766922,0.250980406999588);
#671=CARTESIAN_POINT('',(-8.5,0.0,23.0));
#672=CARTESIAN_POINT('',(-20.5,0.0,23.0));
#673=VECTOR('',#736,1.0);
#674=CARTESIAN_POINT('',(-8.5,2000.0,23.0));
#675=CARTESIAN_POINT('',(-8.5,2000.0,23.0));
#676=VECTOR('',#737,1.0);
#677=CARTESIAN_POINT('',(-20.5,2000.0,23.0));
#678=VECTOR('',#738,1.0);
#679=COLOUR_RGB('',0.141176477074623,0.5686274766922,0.250980406999588);
#680=CARTESIAN_POINT('',(-8.5,0.0,21.0));
#681=CARTESIAN_POINT('',(-8.5,0.0,23.0));
#682=VECTOR('',#739,1.0);
#683=CARTESIAN_POINT('',(-8.5,2000.0,21.0));
#684=CARTESIAN_POINT('',(-8.5,2000.0,21.0));
#685=VECTOR('',#740,1.0);
#686=CARTESIAN_POINT('',(-8.5,2000.0,23.0));
#687=VECTOR('',#741,1.0);
#688=COLOUR_RGB('',0.141176477074623,0.5686274766922,0.250980406999588);
#689=CARTESIAN_POINT('',(-8.5,0.0,21.0));
#690=VECTOR('',#742,1.0);
#691=CARTESIAN_POINT('',(0.0,2000.0,21.0));
#692=VECTOR('',#743,1.0);
#693=COLOUR_RGB('',0.141176477074623,0.5686274766922,0.250980406999588);
#694=COLOUR_RGB('',0.141176477074623,0.5686274766922,0.250980406999588);
#695=COLOUR_RGB('',0.141176477074623,0.5686274766922,0.250980406999588);
#696=DIRECTION('',(0.0,0.0,1.0));
#697=DIRECTION('',(0.0,-1.0,0.0));
#698=DIRECTION('',(0.0,0.0,1.0));
#699=DIRECTION('',(0.0,-1.0,0.0));
#700=DIRECTION('',(1.0,0.0,0.0));
#701=DIRECTION('',(0.0,-1.0,0.0));
#702=DIRECTION('',(1.0,0.0,0.0));
#703=DIRECTION('',(0.0,0.0,1.0));
#704=DIRECTION('',(0.0,-1.0,0.0));
#705=DIRECTION('',(0.0,0.0,1.0));
#706=DIRECTION('',(-1.0,0.0,0.0));
#707=DIRECTION('',(0.0,-1.0,0.0));
#708=DIRECTION('',(-1.0,0.0,0.0));
#709=DIRECTION('',(0.0,0.0,1.0));
#710=DIRECTION('',(0.0,-1.0,0.0));
#711=DIRECTION('',(0.0,0.0,1.0));
#712=DIRECTION('',(1.0,0.0,0.0));
#713=DIRECTION('',(0.0,-1.0,0.0));
#714=DIRECTION('',(1.0,0.0,0.0));
#715=DIRECTION('',(0.0,0.0,-1.0));
#716=DIRECTION('',(0.0,-1.0,0.0));
#717=DIRECTION('',(0.0,0.0,-1.0));
#718=DIRECTION('',(-1.0,0.0,0.0));
#719=DIRECTION('',(0.0,-1.0,0.0));
#720=DIRECTION('',(-1.0,0.0,0.0));
#721=DIRECTION('',(0.0,0.0,1.0));
#722=DIRECTION('',(0.0,-1.0,0.0));
#723=DIRECTION('',(0.0,0.0,1.0));
#724=DIRECTION('',(1.0,0.0,0.0));
#725=DIRECTION('',(0.0,-1.0,0.0));
#726=DIRECTION('',(1.0,0.0,0.0));
#727=DIRECTION('',(0.0,0.0,-1.0));
#728=DIRECTION('',(0.0,-1.0,0.0));
#729=DIRECTION('',(0.0,0.0,-1.0));
#730=DIRECTION('',(-1.0,0.0,0.0));
#731=DIRECTION('',(0.0,-1.0,0.0));
#732=DIRECTION('',(-1.0,0.0,0.0));
#733=DIRECTION('',(0.0,0.0,-1.0));
#734=DIRECTION('',(0.0,-1.0,0.0));
#735=DIRECTION('',(0.0,0.0,-1.0));
#736=DIRECTION('',(1.0,0.0,0.0));
#737=DIRECTION('',(0.0,-1.0,0.0));
#738=DIRECTION('',(1.0,0.0,0.0));
#739=DIRECTION('',(0.0,0.0,-1.0));
#740=DIRECTION('',(0.0,-1.0,0.0));
#741=DIRECTION('',(0.0,0.0,-1.0));
#742=DIRECTION('',(1.0,0.0,0.0));
#743=DIRECTION('',(1.0,0.0,0.0));
ENDSEC;
END-ISO-10303-21;
