ISO-10303-21;
HEADER;
FILE_DESCRIPTION(('STEP AP214'),'1');
FILE_NAME('cctmp_38B9C43E-F6AA-4373-A12E-2028F1AA1F27_2023_6_19_11_19_16_430..stp','2023-06-19T09:19:16',('Murtfeldt Kunststoffe GmbH & Co.KG'),('CADClick - www.CADClick.com'),'Spatial InterOp 3D',' ','unknown authorization');
FILE_SCHEMA(('AUTOMOTIVE_DESIGN'));
ENDSEC;
DATA;
#1=MECHANICAL_DESIGN_GEOMETRIC_PRESENTATION_REPRESENTATION(' ',(#10,#11,#12,#13,#14,#15,#16,#17,#18,#19,#20),#6);
#2=PRODUCT_DEFINITION_CONTEXT('',#21,'design');
#3=APPLICATION_PROTOCOL_DEFINITION('INTERNATIONAL STANDARD','automotive_design',1994,#21);
#4=PRODUCT_CATEGORY_RELATIONSHIP('NONE','NONE',#22,#23);
#5=SHAPE_DEFINITION_REPRESENTATION(#24,#25);
#6= (GEOMETRIC_REPRESENTATION_CONTEXT(3)GLOBAL_UNCERTAINTY_ASSIGNED_CONTEXT((#28))GLOBAL_UNIT_ASSIGNED_CONTEXT((#30,#31,#32))REPRESENTATION_CONTEXT('NONE','WORKSPACE'));
#10=STYLED_ITEM('',(#34),#35);
#11=STYLED_ITEM('',(#36),#37);
#12=STYLED_ITEM('',(#38),#39);
#13=STYLED_ITEM('',(#40),#41);
#14=STYLED_ITEM('',(#42),#43);
#15=STYLED_ITEM('',(#44),#45);
#16=STYLED_ITEM('',(#46),#47);
#17=STYLED_ITEM('',(#48),#49);
#18=STYLED_ITEM('',(#50),#51);
#19=STYLED_ITEM('',(#52),#53);
#20=STYLED_ITEM('',(#54),#55);
#21=APPLICATION_CONTEXT(' ');
#22=PRODUCT_CATEGORY('part','NONE');
#23=PRODUCT_RELATED_PRODUCT_CATEGORY('detail',' ',(#56));
#24=PRODUCT_DEFINITION_SHAPE('NONE','NONE',#57);
#25=ADVANCED_BREP_SHAPE_REPRESENTATION('221020037',(#55,#58),#6);
#28=UNCERTAINTY_MEASURE_WITH_UNIT(LENGTH_MEASURE(1.0E-006),#30,'','');
#30= (CONVERSION_BASED_UNIT('MILLIMETRE',#61)LENGTH_UNIT()NAMED_UNIT(#64));
#31= (NAMED_UNIT(#66)PLANE_ANGLE_UNIT()SI_UNIT($,.RADIAN.));
#32= (NAMED_UNIT(#66)SOLID_ANGLE_UNIT()SI_UNIT($,.STERADIAN.));
#34=PRESENTATION_STYLE_ASSIGNMENT((#72));
#35=ADVANCED_FACE('',(#73),#74,.T.);
#36=PRESENTATION_STYLE_ASSIGNMENT((#75));
#37=ADVANCED_FACE('',(#76),#77,.T.);
#38=PRESENTATION_STYLE_ASSIGNMENT((#78));
#39=ADVANCED_FACE('',(#79),#80,.T.);
#40=PRESENTATION_STYLE_ASSIGNMENT((#81));
#41=ADVANCED_FACE('',(#82),#83,.T.);
#42=PRESENTATION_STYLE_ASSIGNMENT((#84));
#43=ADVANCED_FACE('',(#85),#86,.T.);
#44=PRESENTATION_STYLE_ASSIGNMENT((#87));
#45=ADVANCED_FACE('',(#88),#89,.T.);
#46=PRESENTATION_STYLE_ASSIGNMENT((#90));
#47=ADVANCED_FACE('',(#91),#92,.T.);
#48=PRESENTATION_STYLE_ASSIGNMENT((#93));
#49=ADVANCED_FACE('',(#94),#95,.T.);
#50=PRESENTATION_STYLE_ASSIGNMENT((#96));
#51=ADVANCED_FACE('',(#97),#98,.T.);
#52=PRESENTATION_STYLE_ASSIGNMENT((#99));
#53=ADVANCED_FACE('',(#100),#101,.F.);
#54=PRESENTATION_STYLE_ASSIGNMENT((#102));
#55=MANIFOLD_SOLID_BREP('221020037',#103);
#56=PRODUCT('221020037','','PART--DESC',(#104));
#57=PRODUCT_DEFINITION('','NONE',#105,#2);
#58=AXIS2_PLACEMENT_3D('',#106,#107,#108);
#61=LENGTH_MEASURE_WITH_UNIT(LENGTH_MEASURE(1.0),#109);
#64=DIMENSIONAL_EXPONENTS(1.0,0.0,0.0,0.0,0.0,0.0,0.0);
#66=DIMENSIONAL_EXPONENTS(0.0,0.0,0.0,0.0,0.0,0.0,0.0);
#72=SURFACE_STYLE_USAGE(.BOTH.,#110);
#73=FACE_OUTER_BOUND('',#111,.T.);
#74=PLANE('',#112);
#75=SURFACE_STYLE_USAGE(.BOTH.,#113);
#76=FACE_OUTER_BOUND('',#114,.T.);
#77=PLANE('',#115);
#78=SURFACE_STYLE_USAGE(.BOTH.,#116);
#79=FACE_OUTER_BOUND('',#117,.T.);
#80=PLANE('',#118);
#81=SURFACE_STYLE_USAGE(.BOTH.,#119);
#82=FACE_OUTER_BOUND('',#120,.T.);
#83=PLANE('',#121);
#84=SURFACE_STYLE_USAGE(.BOTH.,#122);
#85=FACE_OUTER_BOUND('',#123,.T.);
#86=PLANE('',#124);
#87=SURFACE_STYLE_USAGE(.BOTH.,#125);
#88=FACE_OUTER_BOUND('',#126,.T.);
#89=PLANE('',#127);
#90=SURFACE_STYLE_USAGE(.BOTH.,#128);
#91=FACE_OUTER_BOUND('',#129,.T.);
#92=PLANE('',#130);
#93=SURFACE_STYLE_USAGE(.BOTH.,#131);
#94=FACE_OUTER_BOUND('',#132,.T.);
#95=PLANE('',#133);
#96=SURFACE_STYLE_USAGE(.BOTH.,#134);
#97=FACE_OUTER_BOUND('',#135,.T.);
#98=PLANE('',#136);
#99=SURFACE_STYLE_USAGE(.BOTH.,#137);
#100=FACE_OUTER_BOUND('',#138,.T.);
#101=PLANE('',#139);
#102=SURFACE_STYLE_USAGE(.BOTH.,#140);
#103=CLOSED_SHELL('',(#35,#37,#39,#41,#43,#45,#47,#49,#51,#53));
#104=PRODUCT_CONTEXT('',#21,'mechanical');
#105=PRODUCT_DEFINITION_FORMATION_WITH_SPECIFIED_SOURCE(' ','NONE',#56,.NOT_KNOWN.);
#106=CARTESIAN_POINT('',(0.0,0.0,0.0));
#107=DIRECTION('',(0.0,0.0,1.0));
#108=DIRECTION('',(1.0,0.0,0.0));
#109= (NAMED_UNIT(#64)LENGTH_UNIT()SI_UNIT(.MILLI.,.METRE.));
#110=SURFACE_SIDE_STYLE('',(#142));
#111=EDGE_LOOP('',(#143,#144,#145,#146));
#112=AXIS2_PLACEMENT_3D('',#147,#148,#149);
#113=SURFACE_SIDE_STYLE('',(#150));
#114=EDGE_LOOP('',(#151,#152,#153,#154));
#115=AXIS2_PLACEMENT_3D('',#155,#156,#157);
#116=SURFACE_SIDE_STYLE('',(#158));
#117=EDGE_LOOP('',(#159,#160,#161,#162));
#118=AXIS2_PLACEMENT_3D('',#163,#164,#165);
#119=SURFACE_SIDE_STYLE('',(#166));
#120=EDGE_LOOP('',(#167,#168,#169,#170));
#121=AXIS2_PLACEMENT_3D('',#171,#172,#173);
#122=SURFACE_SIDE_STYLE('',(#174));
#123=EDGE_LOOP('',(#175,#176,#177,#178));
#124=AXIS2_PLACEMENT_3D('',#179,#180,#181);
#125=SURFACE_SIDE_STYLE('',(#182));
#126=EDGE_LOOP('',(#183,#184,#185,#186));
#127=AXIS2_PLACEMENT_3D('',#187,#188,#189);
#128=SURFACE_SIDE_STYLE('',(#190));
#129=EDGE_LOOP('',(#191,#192,#193,#194));
#130=AXIS2_PLACEMENT_3D('',#195,#196,#197);
#131=SURFACE_SIDE_STYLE('',(#198));
#132=EDGE_LOOP('',(#199,#200,#201,#202));
#133=AXIS2_PLACEMENT_3D('',#203,#204,#205);
#134=SURFACE_SIDE_STYLE('',(#206));
#135=EDGE_LOOP('',(#207,#208,#209,#210,#211,#212,#213,#214));
#136=AXIS2_PLACEMENT_3D('',#215,#216,#217);
#137=SURFACE_SIDE_STYLE('',(#218));
#138=EDGE_LOOP('',(#219,#220,#221,#222,#223,#224,#225,#226));
#139=AXIS2_PLACEMENT_3D('',#227,#228,#229);
#140=SURFACE_SIDE_STYLE('',(#230));
#142=SURFACE_STYLE_FILL_AREA(#231);
#143=ORIENTED_EDGE('',*,*,#232,.T.);
#144=ORIENTED_EDGE('',*,*,#233,.F.);
#145=ORIENTED_EDGE('',*,*,#234,.F.);
#146=ORIENTED_EDGE('',*,*,#235,.T.);
#147=CARTESIAN_POINT('',(14.9,2000.0,26.15));
#148=DIRECTION('',(-1.0,0.0,0.0));
#149=DIRECTION('',(0.0,0.0,-1.0));
#150=SURFACE_STYLE_FILL_AREA(#236);
#151=ORIENTED_EDGE('',*,*,#237,.T.);
#152=ORIENTED_EDGE('',*,*,#238,.F.);
#153=ORIENTED_EDGE('',*,*,#239,.F.);
#154=ORIENTED_EDGE('',*,*,#233,.T.);
#155=CARTESIAN_POINT('',(29.3,2000.0,30.0));
#156=DIRECTION('',(0.0,0.0,1.0));
#157=DIRECTION('',(-1.0,0.0,-0.0));
#158=SURFACE_STYLE_FILL_AREA(#240);
#159=ORIENTED_EDGE('',*,*,#241,.T.);
#160=ORIENTED_EDGE('',*,*,#242,.F.);
#161=ORIENTED_EDGE('',*,*,#243,.F.);
#162=ORIENTED_EDGE('',*,*,#238,.T.);
#163=CARTESIAN_POINT('',(43.7,2000.0,11.15));
#164=DIRECTION('',(1.0,0.0,-0.0));
#165=DIRECTION('',(0.0,0.0,1.0));
#166=SURFACE_STYLE_FILL_AREA(#244);
#167=ORIENTED_EDGE('',*,*,#245,.T.);
#168=ORIENTED_EDGE('',*,*,#246,.F.);
#169=ORIENTED_EDGE('',*,*,#247,.F.);
#170=ORIENTED_EDGE('',*,*,#242,.T.);
#171=CARTESIAN_POINT('',(0.0,2000.0,0.0));
#172=DIRECTION('',(0.0,0.0,-1.0));
#173=DIRECTION('',(1.0,0.0,0.0));
#174=SURFACE_STYLE_FILL_AREA(#248);
#175=ORIENTED_EDGE('',*,*,#249,.T.);
#176=ORIENTED_EDGE('',*,*,#250,.F.);
#177=ORIENTED_EDGE('',*,*,#251,.F.);
#178=ORIENTED_EDGE('',*,*,#246,.T.);
#179=CARTESIAN_POINT('',(-43.7,2000.0,26.15));
#180=DIRECTION('',(-1.0,0.0,0.0));
#181=DIRECTION('',(0.0,0.0,-1.0));
#182=SURFACE_STYLE_FILL_AREA(#252);
#183=ORIENTED_EDGE('',*,*,#253,.T.);
#184=ORIENTED_EDGE('',*,*,#254,.F.);
#185=ORIENTED_EDGE('',*,*,#255,.F.);
#186=ORIENTED_EDGE('',*,*,#250,.T.);
#187=CARTESIAN_POINT('',(-29.3,2000.0,30.0));
#188=DIRECTION('',(0.0,0.0,1.0));
#189=DIRECTION('',(-1.0,0.0,-0.0));
#190=SURFACE_STYLE_FILL_AREA(#256);
#191=ORIENTED_EDGE('',*,*,#257,.T.);
#192=ORIENTED_EDGE('',*,*,#258,.F.);
#193=ORIENTED_EDGE('',*,*,#259,.F.);
#194=ORIENTED_EDGE('',*,*,#254,.T.);
#195=CARTESIAN_POINT('',(-14.9,2000.0,26.15));
#196=DIRECTION('',(1.0,0.0,-0.0));
#197=DIRECTION('',(0.0,0.0,1.0));
#198=SURFACE_STYLE_FILL_AREA(#260);
#199=ORIENTED_EDGE('',*,*,#261,.T.);
#200=ORIENTED_EDGE('',*,*,#235,.F.);
#201=ORIENTED_EDGE('',*,*,#262,.F.);
#202=ORIENTED_EDGE('',*,*,#258,.T.);
#203=CARTESIAN_POINT('',(7.45,2000.0,22.3));
#204=DIRECTION('',(0.0,0.0,1.0));
#205=DIRECTION('',(-1.0,0.0,-0.0));
#206=SURFACE_STYLE_FILL_AREA(#263);
#207=ORIENTED_EDGE('',*,*,#232,.F.);
#208=ORIENTED_EDGE('',*,*,#261,.F.);
#209=ORIENTED_EDGE('',*,*,#257,.F.);
#210=ORIENTED_EDGE('',*,*,#253,.F.);
#211=ORIENTED_EDGE('',*,*,#249,.F.);
#212=ORIENTED_EDGE('',*,*,#245,.F.);
#213=ORIENTED_EDGE('',*,*,#241,.F.);
#214=ORIENTED_EDGE('',*,*,#237,.F.);
#215=CARTESIAN_POINT('',(1.11022302462516E-016,0.0,14.7691846522782));
#216=DIRECTION('',(0.0,-1.0,0.0));
#217=DIRECTION('',(1.0,0.0,0.0));
#218=SURFACE_STYLE_FILL_AREA(#264);
#219=ORIENTED_EDGE('',*,*,#262,.T.);
#220=ORIENTED_EDGE('',*,*,#234,.T.);
#221=ORIENTED_EDGE('',*,*,#239,.T.);
#222=ORIENTED_EDGE('',*,*,#243,.T.);
#223=ORIENTED_EDGE('',*,*,#247,.T.);
#224=ORIENTED_EDGE('',*,*,#251,.T.);
#225=ORIENTED_EDGE('',*,*,#255,.T.);
#226=ORIENTED_EDGE('',*,*,#259,.T.);
#227=CARTESIAN_POINT('',(-6.10622663543836E-016,2000.0,14.7691846522782));
#228=DIRECTION('',(0.0,-1.0,0.0));
#229=DIRECTION('',(1.0,0.0,0.0));
#230=SURFACE_STYLE_FILL_AREA(#265);
#231=FILL_AREA_STYLE('',(#266));
#232=EDGE_CURVE('',#267,#268,#269,.T.);
#233=EDGE_CURVE('',#270,#268,#271,.T.);
#234=EDGE_CURVE('',#272,#270,#273,.T.);
#235=EDGE_CURVE('',#272,#267,#274,.T.);
#236=FILL_AREA_STYLE('',(#275));
#237=EDGE_CURVE('',#268,#276,#277,.T.);
#238=EDGE_CURVE('',#278,#276,#279,.T.);
#239=EDGE_CURVE('',#270,#278,#280,.T.);
#240=FILL_AREA_STYLE('',(#281));
#241=EDGE_CURVE('',#276,#282,#283,.T.);
#242=EDGE_CURVE('',#284,#282,#285,.T.);
#243=EDGE_CURVE('',#278,#284,#286,.T.);
#244=FILL_AREA_STYLE('',(#287));
#245=EDGE_CURVE('',#282,#288,#289,.T.);
#246=EDGE_CURVE('',#290,#288,#291,.T.);
#247=EDGE_CURVE('',#284,#290,#292,.T.);
#248=FILL_AREA_STYLE('',(#293));
#249=EDGE_CURVE('',#288,#294,#295,.T.);
#250=EDGE_CURVE('',#296,#294,#297,.T.);
#251=EDGE_CURVE('',#290,#296,#298,.T.);
#252=FILL_AREA_STYLE('',(#299));
#253=EDGE_CURVE('',#294,#300,#301,.T.);
#254=EDGE_CURVE('',#302,#300,#303,.T.);
#255=EDGE_CURVE('',#296,#302,#304,.T.);
#256=FILL_AREA_STYLE('',(#305));
#257=EDGE_CURVE('',#300,#306,#307,.T.);
#258=EDGE_CURVE('',#308,#306,#309,.T.);
#259=EDGE_CURVE('',#302,#308,#310,.T.);
#260=FILL_AREA_STYLE('',(#311));
#261=EDGE_CURVE('',#306,#267,#312,.T.);
#262=EDGE_CURVE('',#308,#272,#313,.T.);
#263=FILL_AREA_STYLE('',(#314));
#264=FILL_AREA_STYLE('',(#315));
#265=FILL_AREA_STYLE('',(#316));
#266=FILL_AREA_STYLE_COLOUR('',#317);
#267=VERTEX_POINT('',#318);
#268=VERTEX_POINT('',#319);
#269=LINE('',#320,#321);
#270=VERTEX_POINT('',#322);
#271=LINE('',#323,#324);
#272=VERTEX_POINT('',#325);
#273=LINE('',#326,#327);
#274=LINE('',#328,#329);
#275=FILL_AREA_STYLE_COLOUR('',#330);
#276=VERTEX_POINT('',#331);
#277=LINE('',#332,#333);
#278=VERTEX_POINT('',#334);
#279=LINE('',#335,#336);
#280=LINE('',#337,#338);
#281=FILL_AREA_STYLE_COLOUR('',#339);
#282=VERTEX_POINT('',#340);
#283=LINE('',#341,#342);
#284=VERTEX_POINT('',#343);
#285=LINE('',#344,#345);
#286=LINE('',#346,#347);
#287=FILL_AREA_STYLE_COLOUR('',#348);
#288=VERTEX_POINT('',#349);
#289=LINE('',#350,#351);
#290=VERTEX_POINT('',#352);
#291=LINE('',#353,#354);
#292=LINE('',#355,#356);
#293=FILL_AREA_STYLE_COLOUR('',#357);
#294=VERTEX_POINT('',#358);
#295=LINE('',#359,#360);
#296=VERTEX_POINT('',#361);
#297=LINE('',#362,#363);
#298=LINE('',#364,#365);
#299=FILL_AREA_STYLE_COLOUR('',#366);
#300=VERTEX_POINT('',#367);
#301=LINE('',#368,#369);
#302=VERTEX_POINT('',#370);
#303=LINE('',#371,#372);
#304=LINE('',#373,#374);
#305=FILL_AREA_STYLE_COLOUR('',#375);
#306=VERTEX_POINT('',#376);
#307=LINE('',#377,#378);
#308=VERTEX_POINT('',#379);
#309=LINE('',#380,#381);
#310=LINE('',#382,#383);
#311=FILL_AREA_STYLE_COLOUR('',#384);
#312=LINE('',#385,#386);
#313=LINE('',#387,#388);
#314=FILL_AREA_STYLE_COLOUR('',#389);
#315=FILL_AREA_STYLE_COLOUR('',#390);
#316=FILL_AREA_STYLE_COLOUR('',#391);
#317=COLOUR_RGB('',0.141176477074623,0.5686274766922,0.250980406999588);
#318=CARTESIAN_POINT('',(14.9,0.0,22.3));
#319=CARTESIAN_POINT('',(14.9,0.0,30.0));
#320=CARTESIAN_POINT('',(14.9,0.0,22.3));
#321=VECTOR('',#392,1.0);
#322=CARTESIAN_POINT('',(14.9,2000.0,30.0));
#323=CARTESIAN_POINT('',(14.9,2000.0,30.0));
#324=VECTOR('',#393,1.0);
#325=CARTESIAN_POINT('',(14.9,2000.0,22.3));
#326=CARTESIAN_POINT('',(14.9,2000.0,22.3));
#327=VECTOR('',#394,1.0);
#328=CARTESIAN_POINT('',(14.9,2000.0,22.3));
#329=VECTOR('',#395,1.0);
#330=COLOUR_RGB('',0.141176477074623,0.5686274766922,0.250980406999588);
#331=CARTESIAN_POINT('',(43.7,0.0,30.0));
#332=CARTESIAN_POINT('',(14.9,0.0,30.0));
#333=VECTOR('',#396,1.0);
#334=CARTESIAN_POINT('',(43.7,2000.0,30.0));
#335=CARTESIAN_POINT('',(43.7,2000.0,30.0));
#336=VECTOR('',#397,1.0);
#337=CARTESIAN_POINT('',(14.9,2000.0,30.0));
#338=VECTOR('',#398,1.0);
#339=COLOUR_RGB('',0.141176477074623,0.5686274766922,0.250980406999588);
#340=CARTESIAN_POINT('',(43.7,0.0,0.0));
#341=CARTESIAN_POINT('',(43.7,0.0,30.0));
#342=VECTOR('',#399,1.0);
#343=CARTESIAN_POINT('',(43.7,2000.0,0.0));
#344=CARTESIAN_POINT('',(43.7,2000.0,0.0));
#345=VECTOR('',#400,1.0);
#346=CARTESIAN_POINT('',(43.7,2000.0,30.0));
#347=VECTOR('',#401,1.0);
#348=COLOUR_RGB('',0.141176477074623,0.5686274766922,0.250980406999588);
#349=CARTESIAN_POINT('',(-43.7,0.0,0.0));
#350=CARTESIAN_POINT('',(43.7,0.0,0.0));
#351=VECTOR('',#402,1.0);
#352=CARTESIAN_POINT('',(-43.7,2000.0,0.0));
#353=CARTESIAN_POINT('',(-43.7,2000.0,0.0));
#354=VECTOR('',#403,1.0);
#355=CARTESIAN_POINT('',(43.7,2000.0,0.0));
#356=VECTOR('',#404,1.0);
#357=COLOUR_RGB('',0.141176477074623,0.5686274766922,0.250980406999588);
#358=CARTESIAN_POINT('',(-43.7,0.0,30.0));
#359=CARTESIAN_POINT('',(-43.7,0.0,0.0));
#360=VECTOR('',#405,1.0);
#361=CARTESIAN_POINT('',(-43.7,2000.0,30.0));
#362=CARTESIAN_POINT('',(-43.7,2000.0,30.0));
#363=VECTOR('',#406,1.0);
#364=CARTESIAN_POINT('',(-43.7,2000.0,0.0));
#365=VECTOR('',#407,1.0);
#366=COLOUR_RGB('',0.141176477074623,0.5686274766922,0.250980406999588);
#367=CARTESIAN_POINT('',(-14.9,0.0,30.0));
#368=CARTESIAN_POINT('',(-43.7,0.0,30.0));
#369=VECTOR('',#408,1.0);
#370=CARTESIAN_POINT('',(-14.9,2000.0,30.0));
#371=CARTESIAN_POINT('',(-14.9,2000.0,30.0));
#372=VECTOR('',#409,1.0);
#373=CARTESIAN_POINT('',(-43.7,2000.0,30.0));
#374=VECTOR('',#410,1.0);
#375=COLOUR_RGB('',0.141176477074623,0.5686274766922,0.250980406999588);
#376=CARTESIAN_POINT('',(-14.9,0.0,22.3));
#377=CARTESIAN_POINT('',(-14.9,0.0,30.0));
#378=VECTOR('',#411,1.0);
#379=CARTESIAN_POINT('',(-14.9,2000.0,22.3));
#380=CARTESIAN_POINT('',(-14.9,2000.0,22.3));
#381=VECTOR('',#412,1.0);
#382=CARTESIAN_POINT('',(-14.9,2000.0,30.0));
#383=VECTOR('',#413,1.0);
#384=COLOUR_RGB('',0.141176477074623,0.5686274766922,0.250980406999588);
#385=CARTESIAN_POINT('',(-14.9,0.0,22.3));
#386=VECTOR('',#414,1.0);
#387=CARTESIAN_POINT('',(0.0,2000.0,22.3));
#388=VECTOR('',#415,1.0);
#389=COLOUR_RGB('',0.141176477074623,0.5686274766922,0.250980406999588);
#390=COLOUR_RGB('',0.141176477074623,0.5686274766922,0.250980406999588);
#391=COLOUR_RGB('',0.141176477074623,0.5686274766922,0.250980406999588);
#392=DIRECTION('',(0.0,0.0,1.0));
#393=DIRECTION('',(0.0,-1.0,0.0));
#394=DIRECTION('',(0.0,0.0,1.0));
#395=DIRECTION('',(0.0,-1.0,0.0));
#396=DIRECTION('',(1.0,0.0,0.0));
#397=DIRECTION('',(0.0,-1.0,0.0));
#398=DIRECTION('',(1.0,0.0,0.0));
#399=DIRECTION('',(0.0,0.0,-1.0));
#400=DIRECTION('',(0.0,-1.0,0.0));
#401=DIRECTION('',(0.0,0.0,-1.0));
#402=DIRECTION('',(-1.0,0.0,0.0));
#403=DIRECTION('',(0.0,-1.0,0.0));
#404=DIRECTION('',(-1.0,0.0,0.0));
#405=DIRECTION('',(0.0,0.0,1.0));
#406=DIRECTION('',(0.0,-1.0,0.0));
#407=DIRECTION('',(0.0,0.0,1.0));
#408=DIRECTION('',(1.0,0.0,0.0));
#409=DIRECTION('',(0.0,-1.0,0.0));
#410=DIRECTION('',(1.0,0.0,0.0));
#411=DIRECTION('',(0.0,0.0,-1.0));
#412=DIRECTION('',(0.0,-1.0,0.0));
#413=DIRECTION('',(0.0,0.0,-1.0));
#414=DIRECTION('',(1.0,0.0,0.0));
#415=DIRECTION('',(1.0,0.0,0.0));
ENDSEC;
END-ISO-10303-21;
