ISO-10303-21;
HEADER;
FILE_DESCRIPTION(('STEP AP214'),'1');
FILE_NAME('cctmp_75E4853E-628A-419B-9C59-0C625C71947A_2023_6_19_11_2_0_373..stp','2023-06-19T09:02:00',('Murtfeldt Kunststoffe GmbH & Co.KG'),('CADClick - www.CADClick.com'),'Spatial InterOp 3D',' ','unknown authorization');
FILE_SCHEMA(('AUTOMOTIVE_DESIGN'));
ENDSEC;
DATA;
#1=MECHANICAL_DESIGN_GEOMETRIC_PRESENTATION_REPRESENTATION(' ',(#10,#11,#12,#13,#14,#15,#16,#17,#18,#19,#20,#21,#22,#23,#24),#6);
#2=PRODUCT_DEFINITION_CONTEXT('',#25,'design');
#3=APPLICATION_PROTOCOL_DEFINITION('INTERNATIONAL STANDARD','automotive_design',1994,#25);
#4=PRODUCT_CATEGORY_RELATIONSHIP('NONE','NONE',#26,#27);
#5=SHAPE_DEFINITION_REPRESENTATION(#28,#29);
#6= (GEOMETRIC_REPRESENTATION_CONTEXT(3)GLOBAL_UNCERTAINTY_ASSIGNED_CONTEXT((#32))GLOBAL_UNIT_ASSIGNED_CONTEXT((#34,#35,#36))REPRESENTATION_CONTEXT('NONE','WORKSPACE'));
#10=STYLED_ITEM('',(#38),#39);
#11=STYLED_ITEM('',(#40),#41);
#12=STYLED_ITEM('',(#42),#43);
#13=STYLED_ITEM('',(#44),#45);
#14=STYLED_ITEM('',(#46),#47);
#15=STYLED_ITEM('',(#48),#49);
#16=STYLED_ITEM('',(#50),#51);
#17=STYLED_ITEM('',(#52),#53);
#18=STYLED_ITEM('',(#54),#55);
#19=STYLED_ITEM('',(#56),#57);
#20=STYLED_ITEM('',(#58),#59);
#21=STYLED_ITEM('',(#60),#61);
#22=STYLED_ITEM('',(#62),#63);
#23=STYLED_ITEM('',(#64),#65);
#24=STYLED_ITEM('',(#66),#67);
#25=APPLICATION_CONTEXT(' ');
#26=PRODUCT_CATEGORY('part','NONE');
#27=PRODUCT_RELATED_PRODUCT_CATEGORY('detail',' ',(#68));
#28=PRODUCT_DEFINITION_SHAPE('NONE','NONE',#69);
#29=ADVANCED_BREP_SHAPE_REPRESENTATION('221020028',(#67,#70),#6);
#32=UNCERTAINTY_MEASURE_WITH_UNIT(LENGTH_MEASURE(1.0E-006),#34,'','');
#34= (CONVERSION_BASED_UNIT('MILLIMETRE',#73)LENGTH_UNIT()NAMED_UNIT(#76));
#35= (NAMED_UNIT(#78)PLANE_ANGLE_UNIT()SI_UNIT($,.RADIAN.));
#36= (NAMED_UNIT(#78)SOLID_ANGLE_UNIT()SI_UNIT($,.STERADIAN.));
#38=PRESENTATION_STYLE_ASSIGNMENT((#84));
#39=ADVANCED_FACE('',(#85),#86,.T.);
#40=PRESENTATION_STYLE_ASSIGNMENT((#87));
#41=ADVANCED_FACE('',(#88),#89,.T.);
#42=PRESENTATION_STYLE_ASSIGNMENT((#90));
#43=ADVANCED_FACE('',(#91),#92,.T.);
#44=PRESENTATION_STYLE_ASSIGNMENT((#93));
#45=ADVANCED_FACE('',(#94),#95,.T.);
#46=PRESENTATION_STYLE_ASSIGNMENT((#96));
#47=ADVANCED_FACE('',(#97),#98,.T.);
#48=PRESENTATION_STYLE_ASSIGNMENT((#99));
#49=ADVANCED_FACE('',(#100),#101,.T.);
#50=PRESENTATION_STYLE_ASSIGNMENT((#102));
#51=ADVANCED_FACE('',(#103),#104,.T.);
#52=PRESENTATION_STYLE_ASSIGNMENT((#105));
#53=ADVANCED_FACE('',(#106),#107,.T.);
#54=PRESENTATION_STYLE_ASSIGNMENT((#108));
#55=ADVANCED_FACE('',(#109),#110,.T.);
#56=PRESENTATION_STYLE_ASSIGNMENT((#111));
#57=ADVANCED_FACE('',(#112),#113,.T.);
#58=PRESENTATION_STYLE_ASSIGNMENT((#114));
#59=ADVANCED_FACE('',(#115),#116,.T.);
#60=PRESENTATION_STYLE_ASSIGNMENT((#117));
#61=ADVANCED_FACE('',(#118),#119,.T.);
#62=PRESENTATION_STYLE_ASSIGNMENT((#120));
#63=ADVANCED_FACE('',(#121),#122,.T.);
#64=PRESENTATION_STYLE_ASSIGNMENT((#123));
#65=ADVANCED_FACE('',(#124),#125,.F.);
#66=PRESENTATION_STYLE_ASSIGNMENT((#126));
#67=MANIFOLD_SOLID_BREP('221020028',#127);
#68=PRODUCT('221020028','','PART--DESC',(#128));
#69=PRODUCT_DEFINITION('','NONE',#129,#2);
#70=AXIS2_PLACEMENT_3D('',#130,#131,#132);
#73=LENGTH_MEASURE_WITH_UNIT(LENGTH_MEASURE(1.0),#133);
#76=DIMENSIONAL_EXPONENTS(1.0,0.0,0.0,0.0,0.0,0.0,0.0);
#78=DIMENSIONAL_EXPONENTS(0.0,0.0,0.0,0.0,0.0,0.0,0.0);
#84=SURFACE_STYLE_USAGE(.BOTH.,#134);
#85=FACE_OUTER_BOUND('',#135,.T.);
#86=PLANE('',#136);
#87=SURFACE_STYLE_USAGE(.BOTH.,#137);
#88=FACE_OUTER_BOUND('',#138,.T.);
#89=PLANE('',#139);
#90=SURFACE_STYLE_USAGE(.BOTH.,#140);
#91=FACE_OUTER_BOUND('',#141,.T.);
#92=PLANE('',#142);
#93=SURFACE_STYLE_USAGE(.BOTH.,#143);
#94=FACE_OUTER_BOUND('',#144,.T.);
#95=PLANE('',#145);
#96=SURFACE_STYLE_USAGE(.BOTH.,#146);
#97=FACE_OUTER_BOUND('',#147,.T.);
#98=PLANE('',#148);
#99=SURFACE_STYLE_USAGE(.BOTH.,#149);
#100=FACE_OUTER_BOUND('',#150,.T.);
#101=PLANE('',#151);
#102=SURFACE_STYLE_USAGE(.BOTH.,#152);
#103=FACE_OUTER_BOUND('',#153,.T.);
#104=PLANE('',#154);
#105=SURFACE_STYLE_USAGE(.BOTH.,#155);
#106=FACE_OUTER_BOUND('',#156,.T.);
#107=PLANE('',#157);
#108=SURFACE_STYLE_USAGE(.BOTH.,#158);
#109=FACE_OUTER_BOUND('',#159,.T.);
#110=PLANE('',#160);
#111=SURFACE_STYLE_USAGE(.BOTH.,#161);
#112=FACE_OUTER_BOUND('',#162,.T.);
#113=PLANE('',#163);
#114=SURFACE_STYLE_USAGE(.BOTH.,#164);
#115=FACE_OUTER_BOUND('',#165,.T.);
#116=PLANE('',#166);
#117=SURFACE_STYLE_USAGE(.BOTH.,#167);
#118=FACE_OUTER_BOUND('',#168,.T.);
#119=PLANE('',#169);
#120=SURFACE_STYLE_USAGE(.BOTH.,#170);
#121=FACE_OUTER_BOUND('',#171,.T.);
#122=PLANE('',#172);
#123=SURFACE_STYLE_USAGE(.BOTH.,#173);
#124=FACE_OUTER_BOUND('',#174,.T.);
#125=PLANE('',#175);
#126=SURFACE_STYLE_USAGE(.BOTH.,#176);
#127=CLOSED_SHELL('',(#39,#41,#43,#45,#47,#49,#51,#53,#55,#57,#59,#61,#63,#65));
#128=PRODUCT_CONTEXT('',#25,'mechanical');
#129=PRODUCT_DEFINITION_FORMATION_WITH_SPECIFIED_SOURCE(' ','NONE',#68,.NOT_KNOWN.);
#130=CARTESIAN_POINT('',(0.0,0.0,0.0));
#131=DIRECTION('',(0.0,0.0,1.0));
#132=DIRECTION('',(1.0,0.0,0.0));
#133= (NAMED_UNIT(#76)LENGTH_UNIT()SI_UNIT(.MILLI.,.METRE.));
#134=SURFACE_SIDE_STYLE('',(#178));
#135=EDGE_LOOP('',(#179,#180,#181,#182));
#136=AXIS2_PLACEMENT_3D('',#183,#184,#185);
#137=SURFACE_SIDE_STYLE('',(#186));
#138=EDGE_LOOP('',(#187,#188,#189,#190));
#139=AXIS2_PLACEMENT_3D('',#191,#192,#193);
#140=SURFACE_SIDE_STYLE('',(#194));
#141=EDGE_LOOP('',(#195,#196,#197,#198));
#142=AXIS2_PLACEMENT_3D('',#199,#200,#201);
#143=SURFACE_SIDE_STYLE('',(#202));
#144=EDGE_LOOP('',(#203,#204,#205,#206));
#145=AXIS2_PLACEMENT_3D('',#207,#208,#209);
#146=SURFACE_SIDE_STYLE('',(#210));
#147=EDGE_LOOP('',(#211,#212,#213,#214));
#148=AXIS2_PLACEMENT_3D('',#215,#216,#217);
#149=SURFACE_SIDE_STYLE('',(#218));
#150=EDGE_LOOP('',(#219,#220,#221,#222));
#151=AXIS2_PLACEMENT_3D('',#223,#224,#225);
#152=SURFACE_SIDE_STYLE('',(#226));
#153=EDGE_LOOP('',(#227,#228,#229,#230));
#154=AXIS2_PLACEMENT_3D('',#231,#232,#233);
#155=SURFACE_SIDE_STYLE('',(#234));
#156=EDGE_LOOP('',(#235,#236,#237,#238));
#157=AXIS2_PLACEMENT_3D('',#239,#240,#241);
#158=SURFACE_SIDE_STYLE('',(#242));
#159=EDGE_LOOP('',(#243,#244,#245,#246));
#160=AXIS2_PLACEMENT_3D('',#247,#248,#249);
#161=SURFACE_SIDE_STYLE('',(#250));
#162=EDGE_LOOP('',(#251,#252,#253,#254));
#163=AXIS2_PLACEMENT_3D('',#255,#256,#257);
#164=SURFACE_SIDE_STYLE('',(#258));
#165=EDGE_LOOP('',(#259,#260,#261,#262));
#166=AXIS2_PLACEMENT_3D('',#263,#264,#265);
#167=SURFACE_SIDE_STYLE('',(#266));
#168=EDGE_LOOP('',(#267,#268,#269,#270));
#169=AXIS2_PLACEMENT_3D('',#271,#272,#273);
#170=SURFACE_SIDE_STYLE('',(#274));
#171=EDGE_LOOP('',(#275,#276,#277,#278,#279,#280,#281,#282,#283,#284,#285,#286));
#172=AXIS2_PLACEMENT_3D('',#287,#288,#289);
#173=SURFACE_SIDE_STYLE('',(#290));
#174=EDGE_LOOP('',(#291,#292,#293,#294,#295,#296,#297,#298,#299,#300,#301,#302));
#175=AXIS2_PLACEMENT_3D('',#303,#304,#305);
#176=SURFACE_SIDE_STYLE('',(#306));
#178=SURFACE_STYLE_FILL_AREA(#307);
#179=ORIENTED_EDGE('',*,*,#308,.T.);
#180=ORIENTED_EDGE('',*,*,#309,.F.);
#181=ORIENTED_EDGE('',*,*,#310,.F.);
#182=ORIENTED_EDGE('',*,*,#311,.T.);
#183=CARTESIAN_POINT('',(3.4,2000.0,18.9));
#184=DIRECTION('',(-1.0,0.0,0.0));
#185=DIRECTION('',(0.0,0.0,-1.0));
#186=SURFACE_STYLE_FILL_AREA(#312);
#187=ORIENTED_EDGE('',*,*,#313,.T.);
#188=ORIENTED_EDGE('',*,*,#314,.F.);
#189=ORIENTED_EDGE('',*,*,#315,.F.);
#190=ORIENTED_EDGE('',*,*,#309,.T.);
#191=CARTESIAN_POINT('',(7.0,2000.0,20.0));
#192=DIRECTION('',(0.0,0.0,1.0));
#193=DIRECTION('',(-1.0,0.0,-0.0));
#194=SURFACE_STYLE_FILL_AREA(#316);
#195=ORIENTED_EDGE('',*,*,#317,.T.);
#196=ORIENTED_EDGE('',*,*,#318,.F.);
#197=ORIENTED_EDGE('',*,*,#319,.F.);
#198=ORIENTED_EDGE('',*,*,#314,.T.);
#199=CARTESIAN_POINT('',(10.6,2000.0,18.9));
#200=DIRECTION('',(1.0,0.0,-0.0));
#201=DIRECTION('',(0.0,0.0,1.0));
#202=SURFACE_STYLE_FILL_AREA(#320);
#203=ORIENTED_EDGE('',*,*,#321,.T.);
#204=ORIENTED_EDGE('',*,*,#322,.F.);
#205=ORIENTED_EDGE('',*,*,#323,.F.);
#206=ORIENTED_EDGE('',*,*,#318,.T.);
#207=CARTESIAN_POINT('',(14.05,2000.0,17.8));
#208=DIRECTION('',(0.0,0.0,1.0));
#209=DIRECTION('',(-1.0,0.0,-0.0));
#210=SURFACE_STYLE_FILL_AREA(#324);
#211=ORIENTED_EDGE('',*,*,#325,.T.);
#212=ORIENTED_EDGE('',*,*,#326,.F.);
#213=ORIENTED_EDGE('',*,*,#327,.F.);
#214=ORIENTED_EDGE('',*,*,#322,.T.);
#215=CARTESIAN_POINT('',(17.5,2000.0,8.9));
#216=DIRECTION('',(1.0,0.0,-0.0));
#217=DIRECTION('',(0.0,0.0,1.0));
#218=SURFACE_STYLE_FILL_AREA(#328);
#219=ORIENTED_EDGE('',*,*,#329,.T.);
#220=ORIENTED_EDGE('',*,*,#330,.F.);
#221=ORIENTED_EDGE('',*,*,#331,.F.);
#222=ORIENTED_EDGE('',*,*,#326,.T.);
#223=CARTESIAN_POINT('',(0.0,2000.0,0.0));
#224=DIRECTION('',(0.0,0.0,-1.0));
#225=DIRECTION('',(1.0,0.0,0.0));
#226=SURFACE_STYLE_FILL_AREA(#332);
#227=ORIENTED_EDGE('',*,*,#333,.T.);
#228=ORIENTED_EDGE('',*,*,#334,.F.);
#229=ORIENTED_EDGE('',*,*,#335,.F.);
#230=ORIENTED_EDGE('',*,*,#330,.T.);
#231=CARTESIAN_POINT('',(-17.5,2000.0,8.9));
#232=DIRECTION('',(-1.0,0.0,0.0));
#233=DIRECTION('',(0.0,0.0,-1.0));
#234=SURFACE_STYLE_FILL_AREA(#336);
#235=ORIENTED_EDGE('',*,*,#337,.T.);
#236=ORIENTED_EDGE('',*,*,#338,.F.);
#237=ORIENTED_EDGE('',*,*,#339,.F.);
#238=ORIENTED_EDGE('',*,*,#334,.T.);
#239=CARTESIAN_POINT('',(-14.05,2000.0,17.8));
#240=DIRECTION('',(0.0,0.0,1.0));
#241=DIRECTION('',(-1.0,0.0,-0.0));
#242=SURFACE_STYLE_FILL_AREA(#340);
#243=ORIENTED_EDGE('',*,*,#341,.T.);
#244=ORIENTED_EDGE('',*,*,#342,.F.);
#245=ORIENTED_EDGE('',*,*,#343,.F.);
#246=ORIENTED_EDGE('',*,*,#338,.T.);
#247=CARTESIAN_POINT('',(-10.6,2000.0,18.9));
#248=DIRECTION('',(-1.0,0.0,0.0));
#249=DIRECTION('',(0.0,0.0,-1.0));
#250=SURFACE_STYLE_FILL_AREA(#344);
#251=ORIENTED_EDGE('',*,*,#345,.T.);
#252=ORIENTED_EDGE('',*,*,#346,.F.);
#253=ORIENTED_EDGE('',*,*,#347,.F.);
#254=ORIENTED_EDGE('',*,*,#342,.T.);
#255=CARTESIAN_POINT('',(-7.0,2000.0,20.0));
#256=DIRECTION('',(0.0,0.0,1.0));
#257=DIRECTION('',(-1.0,0.0,-0.0));
#258=SURFACE_STYLE_FILL_AREA(#348);
#259=ORIENTED_EDGE('',*,*,#349,.T.);
#260=ORIENTED_EDGE('',*,*,#350,.F.);
#261=ORIENTED_EDGE('',*,*,#351,.F.);
#262=ORIENTED_EDGE('',*,*,#346,.T.);
#263=CARTESIAN_POINT('',(-3.4,2000.0,18.9));
#264=DIRECTION('',(1.0,0.0,-0.0));
#265=DIRECTION('',(0.0,0.0,1.0));
#266=SURFACE_STYLE_FILL_AREA(#352);
#267=ORIENTED_EDGE('',*,*,#353,.T.);
#268=ORIENTED_EDGE('',*,*,#311,.F.);
#269=ORIENTED_EDGE('',*,*,#354,.F.);
#270=ORIENTED_EDGE('',*,*,#350,.T.);
#271=CARTESIAN_POINT('',(1.7,2000.0,17.8));
#272=DIRECTION('',(0.0,0.0,1.0));
#273=DIRECTION('',(-1.0,0.0,-0.0));
#274=SURFACE_STYLE_FILL_AREA(#355);
#275=ORIENTED_EDGE('',*,*,#308,.F.);
#276=ORIENTED_EDGE('',*,*,#353,.F.);
#277=ORIENTED_EDGE('',*,*,#349,.F.);
#278=ORIENTED_EDGE('',*,*,#345,.F.);
#279=ORIENTED_EDGE('',*,*,#341,.F.);
#280=ORIENTED_EDGE('',*,*,#337,.F.);
#281=ORIENTED_EDGE('',*,*,#333,.F.);
#282=ORIENTED_EDGE('',*,*,#329,.F.);
#283=ORIENTED_EDGE('',*,*,#325,.F.);
#284=ORIENTED_EDGE('',*,*,#321,.F.);
#285=ORIENTED_EDGE('',*,*,#317,.F.);
#286=ORIENTED_EDGE('',*,*,#313,.F.);
#287=CARTESIAN_POINT('',(4.71844785465692E-016,0.0,9.94615384615384));
#288=DIRECTION('',(0.0,-1.0,0.0));
#289=DIRECTION('',(1.0,0.0,0.0));
#290=SURFACE_STYLE_FILL_AREA(#356);
#291=ORIENTED_EDGE('',*,*,#354,.T.);
#292=ORIENTED_EDGE('',*,*,#310,.T.);
#293=ORIENTED_EDGE('',*,*,#315,.T.);
#294=ORIENTED_EDGE('',*,*,#319,.T.);
#295=ORIENTED_EDGE('',*,*,#323,.T.);
#296=ORIENTED_EDGE('',*,*,#327,.T.);
#297=ORIENTED_EDGE('',*,*,#331,.T.);
#298=ORIENTED_EDGE('',*,*,#335,.T.);
#299=ORIENTED_EDGE('',*,*,#339,.T.);
#300=ORIENTED_EDGE('',*,*,#343,.T.);
#301=ORIENTED_EDGE('',*,*,#347,.T.);
#302=ORIENTED_EDGE('',*,*,#351,.T.);
#303=CARTESIAN_POINT('',(-1.45716771982052E-016,2000.0,9.94615384615384));
#304=DIRECTION('',(0.0,-1.0,0.0));
#305=DIRECTION('',(1.0,0.0,0.0));
#306=SURFACE_STYLE_FILL_AREA(#357);
#307=FILL_AREA_STYLE('',(#358));
#308=EDGE_CURVE('',#359,#360,#361,.T.);
#309=EDGE_CURVE('',#362,#360,#363,.T.);
#310=EDGE_CURVE('',#364,#362,#365,.T.);
#311=EDGE_CURVE('',#364,#359,#366,.T.);
#312=FILL_AREA_STYLE('',(#367));
#313=EDGE_CURVE('',#360,#368,#369,.T.);
#314=EDGE_CURVE('',#370,#368,#371,.T.);
#315=EDGE_CURVE('',#362,#370,#372,.T.);
#316=FILL_AREA_STYLE('',(#373));
#317=EDGE_CURVE('',#368,#374,#375,.T.);
#318=EDGE_CURVE('',#376,#374,#377,.T.);
#319=EDGE_CURVE('',#370,#376,#378,.T.);
#320=FILL_AREA_STYLE('',(#379));
#321=EDGE_CURVE('',#374,#380,#381,.T.);
#322=EDGE_CURVE('',#382,#380,#383,.T.);
#323=EDGE_CURVE('',#376,#382,#384,.T.);
#324=FILL_AREA_STYLE('',(#385));
#325=EDGE_CURVE('',#380,#386,#387,.T.);
#326=EDGE_CURVE('',#388,#386,#389,.T.);
#327=EDGE_CURVE('',#382,#388,#390,.T.);
#328=FILL_AREA_STYLE('',(#391));
#329=EDGE_CURVE('',#386,#392,#393,.T.);
#330=EDGE_CURVE('',#394,#392,#395,.T.);
#331=EDGE_CURVE('',#388,#394,#396,.T.);
#332=FILL_AREA_STYLE('',(#397));
#333=EDGE_CURVE('',#392,#398,#399,.T.);
#334=EDGE_CURVE('',#400,#398,#401,.T.);
#335=EDGE_CURVE('',#394,#400,#402,.T.);
#336=FILL_AREA_STYLE('',(#403));
#337=EDGE_CURVE('',#398,#404,#405,.T.);
#338=EDGE_CURVE('',#406,#404,#407,.T.);
#339=EDGE_CURVE('',#400,#406,#408,.T.);
#340=FILL_AREA_STYLE('',(#409));
#341=EDGE_CURVE('',#404,#410,#411,.T.);
#342=EDGE_CURVE('',#412,#410,#413,.T.);
#343=EDGE_CURVE('',#406,#412,#414,.T.);
#344=FILL_AREA_STYLE('',(#415));
#345=EDGE_CURVE('',#410,#416,#417,.T.);
#346=EDGE_CURVE('',#418,#416,#419,.T.);
#347=EDGE_CURVE('',#412,#418,#420,.T.);
#348=FILL_AREA_STYLE('',(#421));
#349=EDGE_CURVE('',#416,#422,#423,.T.);
#350=EDGE_CURVE('',#424,#422,#425,.T.);
#351=EDGE_CURVE('',#418,#424,#426,.T.);
#352=FILL_AREA_STYLE('',(#427));
#353=EDGE_CURVE('',#422,#359,#428,.T.);
#354=EDGE_CURVE('',#424,#364,#429,.T.);
#355=FILL_AREA_STYLE('',(#430));
#356=FILL_AREA_STYLE('',(#431));
#357=FILL_AREA_STYLE('',(#432));
#358=FILL_AREA_STYLE_COLOUR('',#433);
#359=VERTEX_POINT('',#434);
#360=VERTEX_POINT('',#435);
#361=LINE('',#436,#437);
#362=VERTEX_POINT('',#438);
#363=LINE('',#439,#440);
#364=VERTEX_POINT('',#441);
#365=LINE('',#442,#443);
#366=LINE('',#444,#445);
#367=FILL_AREA_STYLE_COLOUR('',#446);
#368=VERTEX_POINT('',#447);
#369=LINE('',#448,#449);
#370=VERTEX_POINT('',#450);
#371=LINE('',#451,#452);
#372=LINE('',#453,#454);
#373=FILL_AREA_STYLE_COLOUR('',#455);
#374=VERTEX_POINT('',#456);
#375=LINE('',#457,#458);
#376=VERTEX_POINT('',#459);
#377=LINE('',#460,#461);
#378=LINE('',#462,#463);
#379=FILL_AREA_STYLE_COLOUR('',#464);
#380=VERTEX_POINT('',#465);
#381=LINE('',#466,#467);
#382=VERTEX_POINT('',#468);
#383=LINE('',#469,#470);
#384=LINE('',#471,#472);
#385=FILL_AREA_STYLE_COLOUR('',#473);
#386=VERTEX_POINT('',#474);
#387=LINE('',#475,#476);
#388=VERTEX_POINT('',#477);
#389=LINE('',#478,#479);
#390=LINE('',#480,#481);
#391=FILL_AREA_STYLE_COLOUR('',#482);
#392=VERTEX_POINT('',#483);
#393=LINE('',#484,#485);
#394=VERTEX_POINT('',#486);
#395=LINE('',#487,#488);
#396=LINE('',#489,#490);
#397=FILL_AREA_STYLE_COLOUR('',#491);
#398=VERTEX_POINT('',#492);
#399=LINE('',#493,#494);
#400=VERTEX_POINT('',#495);
#401=LINE('',#496,#497);
#402=LINE('',#498,#499);
#403=FILL_AREA_STYLE_COLOUR('',#500);
#404=VERTEX_POINT('',#501);
#405=LINE('',#502,#503);
#406=VERTEX_POINT('',#504);
#407=LINE('',#505,#506);
#408=LINE('',#507,#508);
#409=FILL_AREA_STYLE_COLOUR('',#509);
#410=VERTEX_POINT('',#510);
#411=LINE('',#511,#512);
#412=VERTEX_POINT('',#513);
#413=LINE('',#514,#515);
#414=LINE('',#516,#517);
#415=FILL_AREA_STYLE_COLOUR('',#518);
#416=VERTEX_POINT('',#519);
#417=LINE('',#520,#521);
#418=VERTEX_POINT('',#522);
#419=LINE('',#523,#524);
#420=LINE('',#525,#526);
#421=FILL_AREA_STYLE_COLOUR('',#527);
#422=VERTEX_POINT('',#528);
#423=LINE('',#529,#530);
#424=VERTEX_POINT('',#531);
#425=LINE('',#532,#533);
#426=LINE('',#534,#535);
#427=FILL_AREA_STYLE_COLOUR('',#536);
#428=LINE('',#537,#538);
#429=LINE('',#539,#540);
#430=FILL_AREA_STYLE_COLOUR('',#541);
#431=FILL_AREA_STYLE_COLOUR('',#542);
#432=FILL_AREA_STYLE_COLOUR('',#543);
#433=COLOUR_RGB('',0.141176477074623,0.5686274766922,0.250980406999588);
#434=CARTESIAN_POINT('',(3.4,0.0,17.8));
#435=CARTESIAN_POINT('',(3.4,0.0,20.0));
#436=CARTESIAN_POINT('',(3.4,0.0,17.8));
#437=VECTOR('',#544,1.0);
#438=CARTESIAN_POINT('',(3.4,2000.0,20.0));
#439=CARTESIAN_POINT('',(3.4,2000.0,20.0));
#440=VECTOR('',#545,1.0);
#441=CARTESIAN_POINT('',(3.4,2000.0,17.8));
#442=CARTESIAN_POINT('',(3.4,2000.0,17.8));
#443=VECTOR('',#546,1.0);
#444=CARTESIAN_POINT('',(3.4,2000.0,17.8));
#445=VECTOR('',#547,1.0);
#446=COLOUR_RGB('',0.141176477074623,0.5686274766922,0.250980406999588);
#447=CARTESIAN_POINT('',(10.6,0.0,20.0));
#448=CARTESIAN_POINT('',(3.4,0.0,20.0));
#449=VECTOR('',#548,1.0);
#450=CARTESIAN_POINT('',(10.6,2000.0,20.0));
#451=CARTESIAN_POINT('',(10.6,2000.0,20.0));
#452=VECTOR('',#549,1.0);
#453=CARTESIAN_POINT('',(3.4,2000.0,20.0));
#454=VECTOR('',#550,1.0);
#455=COLOUR_RGB('',0.141176477074623,0.5686274766922,0.250980406999588);
#456=CARTESIAN_POINT('',(10.6,0.0,17.8));
#457=CARTESIAN_POINT('',(10.6,0.0,20.0));
#458=VECTOR('',#551,1.0);
#459=CARTESIAN_POINT('',(10.6,2000.0,17.8));
#460=CARTESIAN_POINT('',(10.6,2000.0,17.8));
#461=VECTOR('',#552,1.0);
#462=CARTESIAN_POINT('',(10.6,2000.0,20.0));
#463=VECTOR('',#553,1.0);
#464=COLOUR_RGB('',0.141176477074623,0.5686274766922,0.250980406999588);
#465=CARTESIAN_POINT('',(17.5,0.0,17.8));
#466=CARTESIAN_POINT('',(10.6,0.0,17.8));
#467=VECTOR('',#554,1.0);
#468=CARTESIAN_POINT('',(17.5,2000.0,17.8));
#469=CARTESIAN_POINT('',(17.5,2000.0,17.8));
#470=VECTOR('',#555,1.0);
#471=CARTESIAN_POINT('',(10.6,2000.0,17.8));
#472=VECTOR('',#556,1.0);
#473=COLOUR_RGB('',0.141176477074623,0.5686274766922,0.250980406999588);
#474=CARTESIAN_POINT('',(17.5,0.0,0.0));
#475=CARTESIAN_POINT('',(17.5,0.0,17.8));
#476=VECTOR('',#557,1.0);
#477=CARTESIAN_POINT('',(17.5,2000.0,0.0));
#478=CARTESIAN_POINT('',(17.5,2000.0,0.0));
#479=VECTOR('',#558,1.0);
#480=CARTESIAN_POINT('',(17.5,2000.0,17.8));
#481=VECTOR('',#559,1.0);
#482=COLOUR_RGB('',0.141176477074623,0.5686274766922,0.250980406999588);
#483=CARTESIAN_POINT('',(-17.5,0.0,0.0));
#484=CARTESIAN_POINT('',(17.5,0.0,0.0));
#485=VECTOR('',#560,1.0);
#486=CARTESIAN_POINT('',(-17.5,2000.0,0.0));
#487=CARTESIAN_POINT('',(-17.5,2000.0,0.0));
#488=VECTOR('',#561,1.0);
#489=CARTESIAN_POINT('',(17.5,2000.0,0.0));
#490=VECTOR('',#562,1.0);
#491=COLOUR_RGB('',0.141176477074623,0.5686274766922,0.250980406999588);
#492=CARTESIAN_POINT('',(-17.5,0.0,17.8));
#493=CARTESIAN_POINT('',(-17.5,0.0,0.0));
#494=VECTOR('',#563,1.0);
#495=CARTESIAN_POINT('',(-17.5,2000.0,17.8));
#496=CARTESIAN_POINT('',(-17.5,2000.0,17.8));
#497=VECTOR('',#564,1.0);
#498=CARTESIAN_POINT('',(-17.5,2000.0,0.0));
#499=VECTOR('',#565,1.0);
#500=COLOUR_RGB('',0.141176477074623,0.5686274766922,0.250980406999588);
#501=CARTESIAN_POINT('',(-10.6,0.0,17.8));
#502=CARTESIAN_POINT('',(-17.5,0.0,17.8));
#503=VECTOR('',#566,1.0);
#504=CARTESIAN_POINT('',(-10.6,2000.0,17.8));
#505=CARTESIAN_POINT('',(-10.6,2000.0,17.8));
#506=VECTOR('',#567,1.0);
#507=CARTESIAN_POINT('',(-17.5,2000.0,17.8));
#508=VECTOR('',#568,1.0);
#509=COLOUR_RGB('',0.141176477074623,0.5686274766922,0.250980406999588);
#510=CARTESIAN_POINT('',(-10.6,0.0,20.0));
#511=CARTESIAN_POINT('',(-10.6,0.0,17.8));
#512=VECTOR('',#569,1.0);
#513=CARTESIAN_POINT('',(-10.6,2000.0,20.0));
#514=CARTESIAN_POINT('',(-10.6,2000.0,20.0));
#515=VECTOR('',#570,1.0);
#516=CARTESIAN_POINT('',(-10.6,2000.0,17.8));
#517=VECTOR('',#571,1.0);
#518=COLOUR_RGB('',0.141176477074623,0.5686274766922,0.250980406999588);
#519=CARTESIAN_POINT('',(-3.4,0.0,20.0));
#520=CARTESIAN_POINT('',(-10.6,0.0,20.0));
#521=VECTOR('',#572,1.0);
#522=CARTESIAN_POINT('',(-3.4,2000.0,20.0));
#523=CARTESIAN_POINT('',(-3.4,2000.0,20.0));
#524=VECTOR('',#573,1.0);
#525=CARTESIAN_POINT('',(-10.6,2000.0,20.0));
#526=VECTOR('',#574,1.0);
#527=COLOUR_RGB('',0.141176477074623,0.5686274766922,0.250980406999588);
#528=CARTESIAN_POINT('',(-3.4,0.0,17.8));
#529=CARTESIAN_POINT('',(-3.4,0.0,20.0));
#530=VECTOR('',#575,1.0);
#531=CARTESIAN_POINT('',(-3.4,2000.0,17.8));
#532=CARTESIAN_POINT('',(-3.4,2000.0,17.8));
#533=VECTOR('',#576,1.0);
#534=CARTESIAN_POINT('',(-3.4,2000.0,20.0));
#535=VECTOR('',#577,1.0);
#536=COLOUR_RGB('',0.141176477074623,0.5686274766922,0.250980406999588);
#537=CARTESIAN_POINT('',(-3.4,0.0,17.8));
#538=VECTOR('',#578,1.0);
#539=CARTESIAN_POINT('',(0.0,2000.0,17.8));
#540=VECTOR('',#579,1.0);
#541=COLOUR_RGB('',0.141176477074623,0.5686274766922,0.250980406999588);
#542=COLOUR_RGB('',0.141176477074623,0.5686274766922,0.250980406999588);
#543=COLOUR_RGB('',0.141176477074623,0.5686274766922,0.250980406999588);
#544=DIRECTION('',(0.0,0.0,1.0));
#545=DIRECTION('',(0.0,-1.0,0.0));
#546=DIRECTION('',(0.0,0.0,1.0));
#547=DIRECTION('',(0.0,-1.0,0.0));
#548=DIRECTION('',(1.0,0.0,0.0));
#549=DIRECTION('',(0.0,-1.0,0.0));
#550=DIRECTION('',(1.0,0.0,0.0));
#551=DIRECTION('',(0.0,0.0,-1.0));
#552=DIRECTION('',(0.0,-1.0,0.0));
#553=DIRECTION('',(0.0,0.0,-1.0));
#554=DIRECTION('',(1.0,0.0,0.0));
#555=DIRECTION('',(0.0,-1.0,0.0));
#556=DIRECTION('',(1.0,0.0,0.0));
#557=DIRECTION('',(0.0,0.0,-1.0));
#558=DIRECTION('',(0.0,-1.0,0.0));
#559=DIRECTION('',(0.0,0.0,-1.0));
#560=DIRECTION('',(-1.0,0.0,0.0));
#561=DIRECTION('',(0.0,-1.0,0.0));
#562=DIRECTION('',(-1.0,0.0,0.0));
#563=DIRECTION('',(0.0,0.0,1.0));
#564=DIRECTION('',(0.0,-1.0,0.0));
#565=DIRECTION('',(0.0,0.0,1.0));
#566=DIRECTION('',(1.0,0.0,0.0));
#567=DIRECTION('',(0.0,-1.0,0.0));
#568=DIRECTION('',(1.0,0.0,0.0));
#569=DIRECTION('',(0.0,0.0,1.0));
#570=DIRECTION('',(0.0,-1.0,0.0));
#571=DIRECTION('',(0.0,0.0,1.0));
#572=DIRECTION('',(1.0,0.0,0.0));
#573=DIRECTION('',(0.0,-1.0,0.0));
#574=DIRECTION('',(1.0,0.0,0.0));
#575=DIRECTION('',(0.0,0.0,-1.0));
#576=DIRECTION('',(0.0,-1.0,0.0));
#577=DIRECTION('',(0.0,0.0,-1.0));
#578=DIRECTION('',(1.0,0.0,0.0));
#579=DIRECTION('',(1.0,0.0,0.0));
ENDSEC;
END-ISO-10303-21;
