ISO-10303-21;
HEADER;
FILE_DESCRIPTION (( 'STEP AP214' ),
    '1' );
FILE_NAME ('Rexnord-S0758-634063.STEP',
    '2022-03-16T10:50:32',
    ( '' ),
    ( '' ),
    'SwSTEP 2.0',
    'SolidWorks 2021',
    '' );
FILE_SCHEMA (( 'AUTOMOTIVE_DESIGN' ));
ENDSEC;

DATA;
#1 = FACE_OUTER_BOUND ( 'NONE', #280, .T. ) ;
#2 = LINE ( 'NONE', #60, #272 ) ;
#3 = PRODUCT_DEFINITION_FORMATION_WITH_SPECIFIED_SOURCE ( 'ANY', '', #52, .NOT_KNOWN. ) ;
#4 = DIRECTION ( 'NONE',  ( 0.0000000000000000000, -0.0000000000000000000, 1.000000000000000000 ) ) ;
#5 = CARTESIAN_POINT ( 'NONE',  ( 0.0000000000000000000, 0.0000000000000000000, 98.43369195224448731 ) ) ;
#6 = DIRECTION ( 'NONE',  ( -0.0000000000000000000, -0.0000000000000000000, 1.000000000000000000 ) ) ;
#7 = VECTOR ( 'NONE', #152, 1000.000000000000000 ) ;
#8 = CIRCLE ( 'NONE', #27, 11.25000000000000000 ) ;
#9 = FACE_OUTER_BOUND ( 'NONE', #84, .T. ) ;
#10 = FACE_OUTER_BOUND ( 'NONE', #199, .T. ) ;
#11 = CARTESIAN_POINT ( 'NONE',  ( 0.0000000000000000000, 0.0000000000000000000, -39.99999999999999289 ) ) ;
#12 = DIRECTION ( 'NONE',  ( -0.0000000000000000000, -0.0000000000000000000, 1.000000000000000000 ) ) ;
#13 = VERTEX_POINT ( 'NONE', #196 ) ;
#14 = CYLINDRICAL_SURFACE ( 'NONE', #69, 8.249999999999994671 ) ;
#15 = ORIENTED_EDGE ( 'NONE', *, *, #356, .F. ) ;
#16 = DIRECTION ( 'NONE',  ( 1.000000000000000000, 0.0000000000000000000, 0.0000000000000000000 ) ) ;
#17 = ORIENTED_EDGE ( 'NONE', *, *, #278, .F. ) ;
#18 = CYLINDRICAL_SURFACE ( 'NONE', #126, 11.24999999999998934 ) ;
#19 = CIRCLE ( 'NONE', #144, 30.00000000000001066 ) ;
#20 = VERTEX_POINT ( 'NONE', #143 ) ;
#21 = DIRECTION ( 'NONE',  ( 1.000000000000000000, 0.0000000000000000000, 0.0000000000000000000 ) ) ;
#22 = ORIENTED_EDGE ( 'NONE', *, *, #215, .T. ) ;
#23 = FACE_BOUND ( 'NONE', #254, .T. ) ;
#24 = ADVANCED_FACE ( 'NONE', ( #320, #210 ), #119, .F. ) ;
#25 = AXIS2_PLACEMENT_3D ( 'NONE', #180, #273, #353 ) ;
#26 = LINE ( 'NONE', #296, #7 ) ;
#27 = AXIS2_PLACEMENT_3D ( 'NONE', #368, #229, #253 ) ;
#28 =( NAMED_UNIT ( * ) SI_UNIT ( $, .STERADIAN. ) SOLID_ANGLE_UNIT ( ) );
#29 = DIRECTION ( 'NONE',  ( 1.000000000000000000, 0.0000000000000000000, 0.0000000000000000000 ) ) ;
#30 = LINE ( 'NONE', #93, #348 ) ;
#31 = SURFACE_STYLE_USAGE ( .BOTH. , #267 ) ;
#32 = DIRECTION ( 'NONE',  ( -0.0000000000000000000, -0.0000000000000000000, 1.000000000000000000 ) ) ;
#33 = EDGE_CURVE ( 'NONE', #288, #258, #219, .T. ) ;
#34 = DIRECTION ( 'NONE',  ( 1.000000000000000000, 0.0000000000000000000, 0.0000000000000000000 ) ) ;
#35 = DIRECTION ( 'NONE',  ( -0.0000000000000000000, -0.0000000000000000000, 1.000000000000000000 ) ) ;
#36 = ORIENTED_EDGE ( 'NONE', *, *, #123, .T. ) ;
#37 = EDGE_CURVE ( 'NONE', #275, #112, #2, .T. ) ;
#38 = EDGE_CURVE ( 'NONE', #369, #105, #30, .T. ) ;
#39 =( NAMED_UNIT ( * ) PLANE_ANGLE_UNIT ( ) SI_UNIT ( $, .RADIAN. ) );
#40 = AXIS2_PLACEMENT_3D ( 'NONE', #216, #246, #70 ) ;
#41 = DIRECTION ( 'NONE',  ( -0.0000000000000000000, -0.0000000000000000000, 1.000000000000000000 ) ) ;
#42 = DIRECTION ( 'NONE',  ( -0.0000000000000000000, -0.0000000000000000000, 1.000000000000000000 ) ) ;
#43 = CIRCLE ( 'NONE', #95, 11.24999999999998934 ) ;
#44 =( NAMED_UNIT ( * ) PLANE_ANGLE_UNIT ( ) SI_UNIT ( $, .RADIAN. ) );
#45 = ORIENTED_EDGE ( 'NONE', *, *, #294, .T. ) ;
#46 = DIRECTION ( 'NONE',  ( -0.0000000000000000000, -0.0000000000000000000, 1.000000000000000000 ) ) ;
#47 = ORIENTED_EDGE ( 'NONE', *, *, #135, .F. ) ;
#48 = EDGE_CURVE ( 'NONE', #13, #285, #342, .T. ) ;
#49 = LINE ( 'NONE', #140, #149 ) ;
#50 = VERTEX_POINT ( 'NONE', #156 ) ;
#51 = STYLED_ITEM ( 'NONE', ( #100 ), #131 ) ;
#52 = PRODUCT ( 'Rexnord-S0758-634063', 'Rexnord-S0758-634063', '', ( #260 ) ) ;
#53 = CYLINDRICAL_SURFACE ( 'NONE', #110, 11.25000000000000000 ) ;
#54 = VERTEX_POINT ( 'NONE', #176 ) ;
#55 = DIRECTION ( 'NONE',  ( -0.0000000000000000000, -0.0000000000000000000, 1.000000000000000000 ) ) ;
#56 = CYLINDRICAL_SURFACE ( 'NONE', #155, 11.24999999999998934 ) ;
#57 = DIRECTION ( 'NONE',  ( 1.000000000000000000, 0.0000000000000000000, 0.0000000000000000000 ) ) ;
#58 = PRODUCT_DEFINITION_SHAPE ( 'NONE', 'NONE',  #80 ) ;
#59 = AXIS2_PLACEMENT_3D ( 'NONE', #338, #138, #113 ) ;
#60 = CARTESIAN_POINT ( 'NONE',  ( 11.25000000000000000, 0.0000000000000000000, 98.43369195224448731 ) ) ;
#61 =( LENGTH_UNIT ( ) NAMED_UNIT ( * ) SI_UNIT ( .MILLI., .METRE. ) );
#62 = ADVANCED_FACE ( 'NONE', ( #87 ), #56, .T. ) ;
#63 = CARTESIAN_POINT ( 'NONE',  ( -30.00000000000000711, 3.673940397442059967E-15, 98.43369195224448731 ) ) ;
#64 = AXIS2_PLACEMENT_3D ( 'NONE', #319, #91, #205 ) ;
#65 = EDGE_CURVE ( 'NONE', #174, #133, #43, .T. ) ;
#66 = CYLINDRICAL_SURFACE ( 'NONE', #244, 30.00000000000000711 ) ;
#67 = ORIENTED_EDGE ( 'NONE', *, *, #65, .F. ) ;
#68 = AXIS2_PLACEMENT_3D ( 'NONE', #263, #125, #240 ) ;
#69 = AXIS2_PLACEMENT_3D ( 'NONE', #310, #46, #16 ) ;
#70 = DIRECTION ( 'NONE',  ( 1.000000000000000000, 0.0000000000000000000, 0.0000000000000000000 ) ) ;
#71 = EDGE_CURVE ( 'NONE', #54, #114, #127, .T. ) ;
#72 = DIRECTION ( 'NONE',  ( 1.000000000000000000, 0.0000000000000000000, 0.0000000000000000000 ) ) ;
#73 = EDGE_CURVE ( 'NONE', #114, #105, #200, .T. ) ;
#74 = ORIENTED_EDGE ( 'NONE', *, *, #317, .F. ) ;
#75 = CARTESIAN_POINT ( 'NONE',  ( 0.0000000000000000000, 0.0000000000000000000, -39.99999999999999289 ) ) ;
#76 = ORIENTED_EDGE ( 'NONE', *, *, #173, .T. ) ;
#77 = AXIS2_PLACEMENT_3D ( 'NONE', #98, #214, #336 ) ;
#78 = ORIENTED_EDGE ( 'NONE', *, *, #37, .T. ) ;
#79 = EDGE_CURVE ( 'NONE', #50, #285, #26, .T. ) ;
#80 = PRODUCT_DEFINITION ( 'UNKNOWN', '', #3, #279 ) ;
#81 = CARTESIAN_POINT ( 'NONE',  ( 11.24999999999998934, 0.0000000000000000000, 39.99999999999998579 ) ) ;
#82 = ORIENTED_EDGE ( 'NONE', *, *, #73, .T. ) ;
#83 = CARTESIAN_POINT ( 'NONE',  ( -8.249999999999989342, 1.010333609296565564E-15, 42.24999999999999289 ) ) ;
#84 = EDGE_LOOP ( 'NONE', ( #193, #252, #36, #166 ) ) ;
#85 = COLOUR_RGB ( '',0.2509803921568627416, 0.2509803921568627416, 0.2509803921568627416 ) ;
#86 = ORIENTED_EDGE ( 'NONE', *, *, #356, .T. ) ;
#87 = FACE_OUTER_BOUND ( 'NONE', #161, .T. ) ;
#88 = DIRECTION ( 'NONE',  ( -0.0000000000000000000, -0.0000000000000000000, 1.000000000000000000 ) ) ;
#89 = CARTESIAN_POINT ( 'NONE',  ( 11.25000000000000000, 0.0000000000000000000, -39.99999999999999289 ) ) ;
#90 = ADVANCED_FACE ( 'NONE', ( #23, #1 ), #122, .F. ) ;
#91 = DIRECTION ( 'NONE',  ( 0.0000000000000000000, 0.0000000000000000000, 1.000000000000000000 ) ) ;
#92 = DIRECTION ( 'NONE',  ( 1.000000000000000000, 0.0000000000000000000, 0.0000000000000000000 ) ) ;
#93 = CARTESIAN_POINT ( 'NONE',  ( 30.00000000000000711, 0.0000000000000000000, 98.43369195224448731 ) ) ;
#94 = CARTESIAN_POINT ( 'NONE',  ( -11.24999999999998934, 1.377727649040771008E-15, 42.24999999999999289 ) ) ;
#95 = AXIS2_PLACEMENT_3D ( 'NONE', #259, #374, #92 ) ;
#96 = ORIENTED_EDGE ( 'NONE', *, *, #317, .T. ) ;
#97 = AXIS2_PLACEMENT_3D ( 'NONE', #326, #128, #34 ) ;
#98 = CARTESIAN_POINT ( 'NONE',  ( 0.0000000000000000000, 0.0000000000000000000, -42.25000000000002132 ) ) ;
#99 = DIRECTION ( 'NONE',  ( 1.000000000000000000, 0.0000000000000000000, 0.0000000000000000000 ) ) ;
#100 = PRESENTATION_STYLE_ASSIGNMENT (( #347 ) ) ;
#101 = ORIENTED_EDGE ( 'NONE', *, *, #329, .T. ) ;
#102 = AXIS2_PLACEMENT_3D ( 'NONE', #111, #169, #21 ) ;
#103 = VECTOR ( 'NONE', #6, 1000.000000000000000 ) ;
#104 = DIRECTION ( 'NONE',  ( 1.000000000000000000, 0.0000000000000000000, 0.0000000000000000000 ) ) ;
#105 = VERTEX_POINT ( 'NONE', #177 ) ;
#106 = DIRECTION ( 'NONE',  ( 1.000000000000000000, 0.0000000000000000000, 0.0000000000000000000 ) ) ;
#107 = ADVANCED_FACE ( 'NONE', ( #344 ), #209, .T. ) ;
#108 = ORIENTED_EDGE ( 'NONE', *, *, #123, .F. ) ;
#109 = COLOUR_RGB ( '',0.2509803921568627416, 0.2509803921568627416, 0.2509803921568627416 ) ;
#110 = AXIS2_PLACEMENT_3D ( 'NONE', #366, #334, #308 ) ;
#111 = CARTESIAN_POINT ( 'NONE',  ( 0.0000000000000000000, 0.0000000000000000000, -39.99999999999999289 ) ) ;
#112 = VERTEX_POINT ( 'NONE', #89 ) ;
#113 = DIRECTION ( 'NONE',  ( 1.000000000000000000, 0.0000000000000000000, 0.0000000000000000000 ) ) ;
#114 = VERTEX_POINT ( 'NONE', #261 ) ;
#115 = ADVANCED_BREP_SHAPE_REPRESENTATION ( 'Rexnord-S0758-634063', ( #131, #64 ), #117 ) ;
#116 = VERTEX_POINT ( 'NONE', #120 ) ;
#117 =( GEOMETRIC_REPRESENTATION_CONTEXT ( 3 ) GLOBAL_UNCERTAINTY_ASSIGNED_CONTEXT ( ( #250 ) ) GLOBAL_UNIT_ASSIGNED_CONTEXT ( ( #221, #44, #314 ) ) REPRESENTATION_CONTEXT ( 'NONE', 'WORKASPACE' ) );
#118 = SHAPE_DEFINITION_REPRESENTATION ( #58, #115 ) ;
#119 = PLANE ( 'NONE',  #325 ) ;
#120 = CARTESIAN_POINT ( 'NONE',  ( -11.25000000000000000, 1.377727649040772389E-15, -42.25000000000002132 ) ) ;
#121 = FILL_AREA_STYLE ('',( #154 ) ) ;
#122 = PLANE ( 'NONE',  #187 ) ;
#123 = EDGE_CURVE ( 'NONE', #285, #13, #307, .T. ) ;
#124 = AXIS2_PLACEMENT_3D ( 'NONE', #233, #55, #29 ) ;
#125 = DIRECTION ( 'NONE',  ( -0.0000000000000000000, -0.0000000000000000000, 1.000000000000000000 ) ) ;
#126 = AXIS2_PLACEMENT_3D ( 'NONE', #197, #192, #106 ) ;
#127 = LINE ( 'NONE', #63, #178 ) ;
#128 = DIRECTION ( 'NONE',  ( -0.0000000000000000000, -0.0000000000000000000, 1.000000000000000000 ) ) ;
#129 = ORIENTED_EDGE ( 'NONE', *, *, #157, .T. ) ;
#130 = DIRECTION ( 'NONE',  ( 1.000000000000000000, 0.0000000000000000000, 0.0000000000000000000 ) ) ;
#131 = MANIFOLD_SOLID_BREP ( 'Revolve1', #217 ) ;
#132 = DIRECTION ( 'NONE',  ( -0.0000000000000000000, -0.0000000000000000000, 1.000000000000000000 ) ) ;
#133 = VERTEX_POINT ( 'NONE', #94 ) ;
#134 = CARTESIAN_POINT ( 'NONE',  ( -11.25000000000000000, 1.377727649040772389E-15, -39.99999999999999289 ) ) ;
#135 = EDGE_CURVE ( 'NONE', #133, #174, #194, .T. ) ;
#136 = CARTESIAN_POINT ( 'NONE',  ( 0.0000000000000000000, 0.0000000000000000000, -39.99999999999999289 ) ) ;
#137 = MECHANICAL_DESIGN_GEOMETRIC_PRESENTATION_REPRESENTATION (  '', ( #212 ), #256 ) ;
#138 = DIRECTION ( 'NONE',  ( 0.0000000000000000000, -0.0000000000000000000, 1.000000000000000000 ) ) ;
#139 = ORIENTED_EDGE ( 'NONE', *, *, #135, .T. ) ;
#140 = CARTESIAN_POINT ( 'NONE',  ( -11.25000000000000000, 1.377727649040772389E-15, 98.43369195224448731 ) ) ;
#141 = ORIENTED_EDGE ( 'NONE', *, *, #215, .F. ) ;
#142 = CARTESIAN_POINT ( 'NONE',  ( -11.24999999999998934, 1.377727649040771008E-15, 98.43369195224448731 ) ) ;
#143 = CARTESIAN_POINT ( 'NONE',  ( 8.250000000000000000, 0.0000000000000000000, -42.25000000000002132 ) ) ;
#144 = AXIS2_PLACEMENT_3D ( 'NONE', #136, #359, #130 ) ;
#145 = DIRECTION ( 'NONE',  ( -0.0000000000000000000, -0.0000000000000000000, 1.000000000000000000 ) ) ;
#146 = ORIENTED_EDGE ( 'NONE', *, *, #329, .F. ) ;
#147 = ORIENTED_EDGE ( 'NONE', *, *, #282, .F. ) ;
#148 = CARTESIAN_POINT ( 'NONE',  ( 0.0000000000000000000, 11.24999999999998934, 39.99999999999999289 ) ) ;
#149 = VECTOR ( 'NONE', #12, 1000.000000000000000 ) ;
#150 =( NAMED_UNIT ( * ) PLANE_ANGLE_UNIT ( ) SI_UNIT ( $, .RADIAN. ) );
#151 = CARTESIAN_POINT ( 'NONE',  ( 0.0000000000000000000, 30.00000000000001066, -40.00000000000000711 ) ) ;
#152 = DIRECTION ( 'NONE',  ( -0.0000000000000000000, -0.0000000000000000000, 1.000000000000000000 ) ) ;
#153 = CARTESIAN_POINT ( 'NONE',  ( 0.0000000000000000000, 0.0000000000000000000, 39.99999999999999289 ) ) ;
#154 = FILL_AREA_STYLE_COLOUR ( '', #85 ) ;
#155 = AXIS2_PLACEMENT_3D ( 'NONE', #182, #291, #350 ) ;
#156 = CARTESIAN_POINT ( 'NONE',  ( -8.250000000000000000, 1.010333609296566550E-15, -42.25000000000002132 ) ) ;
#157 = EDGE_CURVE ( 'NONE', #116, #275, #243, .T. ) ;
#158 = FACE_BOUND ( 'NONE', #191, .T. ) ;
#159 = CARTESIAN_POINT ( 'NONE',  ( -11.24999999999998934, 1.377727649040771008E-15, 39.99999999999998579 ) ) ;
#160 = CARTESIAN_POINT ( 'NONE',  ( 0.0000000000000000000, 0.0000000000000000000, -42.25000000000002132 ) ) ;
#161 = EDGE_LOOP ( 'NONE', ( #202, #45, #67, #15 ) ) ;
#162 = CIRCLE ( 'NONE', #97, 11.24999999999998934 ) ;
#163 = DIRECTION ( 'NONE',  ( 1.000000000000000000, 0.0000000000000000000, 0.0000000000000000000 ) ) ;
#164 = ADVANCED_FACE ( 'NONE', ( #9 ), #186, .F. ) ;
#165 = DIRECTION ( 'NONE',  ( 0.0000000000000000000, 0.0000000000000000000, -1.000000000000000000 ) ) ;
#166 = ORIENTED_EDGE ( 'NONE', *, *, #264, .F. ) ;
#167 = AXIS2_PLACEMENT_3D ( 'NONE', #11, #41, #163 ) ;
#168 = FACE_OUTER_BOUND ( 'NONE', #271, .T. ) ;
#169 = DIRECTION ( 'NONE',  ( -0.0000000000000000000, -0.0000000000000000000, 1.000000000000000000 ) ) ;
#170 = ORIENTED_EDGE ( 'NONE', *, *, #157, .F. ) ;
#171 = DIRECTION ( 'NONE',  ( -0.0000000000000000000, -0.0000000000000000000, 1.000000000000000000 ) ) ;
#172 = EDGE_LOOP ( 'NONE', ( #311, #17 ) ) ;
#173 = EDGE_CURVE ( 'NONE', #50, #20, #303, .T. ) ;
#174 = VERTEX_POINT ( 'NONE', #188 ) ;
#175 = UNCERTAINTY_MEASURE_WITH_UNIT (LENGTH_MEASURE( 1.000000000000000082E-05 ), #327, 'distance_accuracy_value', 'NONE');
#176 = CARTESIAN_POINT ( 'NONE',  ( -30.00000000000001421, 3.673940397442060756E-15, -39.99999999999999289 ) ) ;
#177 = CARTESIAN_POINT ( 'NONE',  ( 30.00000000000000000, 0.0000000000000000000, 39.99999999999999289 ) ) ;
#178 = VECTOR ( 'NONE', #88, 1000.000000000000000 ) ;
#179 = CIRCLE ( 'NONE', #167, 30.00000000000001066 ) ;
#180 = CARTESIAN_POINT ( 'NONE',  ( 0.0000000000000000000, 0.0000000000000000000, 42.24999999999999289 ) ) ;
#181 = DIRECTION ( 'NONE',  ( 1.000000000000000000, 0.0000000000000000000, 0.0000000000000000000 ) ) ;
#182 = CARTESIAN_POINT ( 'NONE',  ( 0.0000000000000000000, 0.0000000000000000000, 98.43369195224448731 ) ) ;
#183 = AXIS2_PLACEMENT_3D ( 'NONE', #235, #238, #295 ) ;
#184 = DIRECTION ( 'NONE',  ( -1.000000000000000000, 0.0000000000000000000, -0.0000000000000000000 ) ) ;
#185 = ADVANCED_FACE ( 'NONE', ( #299 ), #304, .T. ) ;
#186 = CYLINDRICAL_SURFACE ( 'NONE', #255, 8.249999999999994671 ) ;
#187 = AXIS2_PLACEMENT_3D ( 'NONE', #148, #204, #372 ) ;
#188 = CARTESIAN_POINT ( 'NONE',  ( 11.24999999999998934, 0.0000000000000000000, 42.24999999999999289 ) ) ;
#189 = VERTEX_POINT ( 'NONE', #134 ) ;
#190 = CARTESIAN_POINT ( 'NONE',  ( 11.24999999999998934, 0.0000000000000000000, 98.43369195224448731 ) ) ;
#191 = EDGE_LOOP ( 'NONE', ( #223, #108 ) ) ;
#192 = DIRECTION ( 'NONE',  ( -0.0000000000000000000, -0.0000000000000000000, 1.000000000000000000 ) ) ;
#193 = ORIENTED_EDGE ( 'NONE', *, *, #173, .F. ) ;
#194 = CIRCLE ( 'NONE', #25, 11.24999999999998934 ) ;
#195 = FACE_OUTER_BOUND ( 'NONE', #228, .T. ) ;
#196 = CARTESIAN_POINT ( 'NONE',  ( 8.249999999999989342, 0.0000000000000000000, 42.24999999999999289 ) ) ;
#197 = CARTESIAN_POINT ( 'NONE',  ( 0.0000000000000000000, 0.0000000000000000000, 98.43369195224448731 ) ) ;
#198 = ORIENTED_EDGE ( 'NONE', *, *, #79, .F. ) ;
#199 = EDGE_LOOP ( 'NONE', ( #301, #139 ) ) ;
#200 = CIRCLE ( 'NONE', #330, 30.00000000000000000 ) ;
#201 = AXIS2_PLACEMENT_3D ( 'NONE', #370, #332, #104 ) ;
#202 = ORIENTED_EDGE ( 'NONE', *, *, #33, .T. ) ;
#203 = SURFACE_STYLE_FILL_AREA ( #121 ) ;
#204 = DIRECTION ( 'NONE',  ( 0.0000000000000000000, 0.0000000000000000000, -1.000000000000000000 ) ) ;
#205 = DIRECTION ( 'NONE',  ( 1.000000000000000000, 0.0000000000000000000, 0.0000000000000000000 ) ) ;
#206 = CARTESIAN_POINT ( 'NONE',  ( 0.0000000000000000000, 0.0000000000000000000, 42.24999999999999289 ) ) ;
#207 = UNCERTAINTY_MEASURE_WITH_UNIT (LENGTH_MEASURE( 1.000000000000000082E-05 ), #61, 'distance_accuracy_value', 'NONE');
#208 = PRESENTATION_LAYER_ASSIGNMENT (  '', '', ( #212 ) ) ;
#209 = CYLINDRICAL_SURFACE ( 'NONE', #68, 11.25000000000000000 ) ;
#210 = FACE_BOUND ( 'NONE', #364, .T. ) ;
#211 = DIRECTION ( 'NONE',  ( 1.000000000000000000, 0.0000000000000000000, 0.0000000000000000000 ) ) ;
#212 = STYLED_ITEM ( 'NONE', ( #232 ), #115 ) ;
#213 = CARTESIAN_POINT ( 'NONE',  ( 0.0000000000000000000, 8.249999999999989342, 42.24999999999999289 ) ) ;
#214 = DIRECTION ( 'NONE',  ( -0.0000000000000000000, -0.0000000000000000000, 1.000000000000000000 ) ) ;
#215 = EDGE_CURVE ( 'NONE', #258, #288, #162, .T. ) ;
#216 = CARTESIAN_POINT ( 'NONE',  ( 0.0000000000000000000, 0.0000000000000000000, -42.25000000000002132 ) ) ;
#217 = CLOSED_SHELL ( 'NONE', ( #345, #239, #62, #164, #351, #300, #234, #341, #90, #185, #24, #107 ) ) ;
#218 = CARTESIAN_POINT ( 'NONE',  ( 0.0000000000000000000, 0.0000000000000000000, 98.43369195224448731 ) ) ;
#219 = CIRCLE ( 'NONE', #183, 11.24999999999998934 ) ;
#220 = ORIENTED_EDGE ( 'NONE', *, *, #282, .T. ) ;
#221 =( LENGTH_UNIT ( ) NAMED_UNIT ( * ) SI_UNIT ( .MILLI., .METRE. ) );
#222 = ORIENTED_EDGE ( 'NONE', *, *, #284, .T. ) ;
#223 = ORIENTED_EDGE ( 'NONE', *, *, #48, .F. ) ;
#224 = CARTESIAN_POINT ( 'NONE',  ( 30.00000000000001066, 0.0000000000000000000, -39.99999999999999289 ) ) ;
#225 = PRESENTATION_LAYER_ASSIGNMENT (  '', '', ( #51 ) ) ;
#226 = CIRCLE ( 'NONE', #102, 11.25000000000000000 ) ;
#227 = FACE_OUTER_BOUND ( 'NONE', #340, .T. ) ;
#228 = EDGE_LOOP ( 'NONE', ( #198, #147, #230, #318 ) ) ;
#229 = DIRECTION ( 'NONE',  ( -0.0000000000000000000, -0.0000000000000000000, 1.000000000000000000 ) ) ;
#230 = ORIENTED_EDGE ( 'NONE', *, *, #264, .T. ) ;
#231 = ORIENTED_EDGE ( 'NONE', *, *, #289, .T. ) ;
#232 = PRESENTATION_STYLE_ASSIGNMENT (( #31 ) ) ;
#233 = CARTESIAN_POINT ( 'NONE',  ( 0.0000000000000000000, 0.0000000000000000000, 42.24999999999999289 ) ) ;
#234 = ADVANCED_FACE ( 'NONE', ( #158, #10 ), #268, .F. ) ;
#235 = CARTESIAN_POINT ( 'NONE',  ( 0.0000000000000000000, 0.0000000000000000000, 39.99999999999998579 ) ) ;
#236 = SURFACE_SIDE_STYLE ('',( #262 ) ) ;
#237 = VECTOR ( 'NONE', #363, 1000.000000000000000 ) ;
#238 = DIRECTION ( 'NONE',  ( -0.0000000000000000000, -0.0000000000000000000, 1.000000000000000000 ) ) ;
#239 = ADVANCED_FACE ( 'NONE', ( #277 ), #66, .T. ) ;
#240 = DIRECTION ( 'NONE',  ( 1.000000000000000000, 0.0000000000000000000, 0.0000000000000000000 ) ) ;
#241 = DIRECTION ( 'NONE',  ( 1.000000000000000000, 0.0000000000000000000, 0.0000000000000000000 ) ) ;
#242 = ORIENTED_EDGE ( 'NONE', *, *, #289, .F. ) ;
#243 = CIRCLE ( 'NONE', #292, 11.25000000000000000 ) ;
#244 = AXIS2_PLACEMENT_3D ( 'NONE', #5, #35, #241 ) ;
#245 = CARTESIAN_POINT ( 'NONE',  ( 0.0000000000000000000, 0.0000000000000000000, 98.43369195224448731 ) ) ;
#246 = DIRECTION ( 'NONE',  ( -0.0000000000000000000, -0.0000000000000000000, 1.000000000000000000 ) ) ;
#247 = LINE ( 'NONE', #270, #103 ) ;
#248 = EDGE_CURVE ( 'NONE', #369, #54, #179, .T. ) ;
#249 = FACE_BOUND ( 'NONE', #339, .T. ) ;
#250 = UNCERTAINTY_MEASURE_WITH_UNIT (LENGTH_MEASURE( 1.000000000000000082E-05 ), #221, 'distance_accuracy_value', 'NONE');
#251 = LINE ( 'NONE', #142, #237 ) ;
#252 = ORIENTED_EDGE ( 'NONE', *, *, #79, .T. ) ;
#253 = DIRECTION ( 'NONE',  ( 1.000000000000000000, 0.0000000000000000000, 0.0000000000000000000 ) ) ;
#254 = EDGE_LOOP ( 'NONE', ( #333, #141 ) ) ;
#255 = AXIS2_PLACEMENT_3D ( 'NONE', #245, #132, #99 ) ;
#256 =( GEOMETRIC_REPRESENTATION_CONTEXT ( 3 ) GLOBAL_UNCERTAINTY_ASSIGNED_CONTEXT ( ( #207 ) ) GLOBAL_UNIT_ASSIGNED_CONTEXT ( ( #61, #150, #28 ) ) REPRESENTATION_CONTEXT ( 'NONE', 'WORKASPACE' ) );
#257 = PLANE ( 'NONE',  #59 ) ;
#258 = VERTEX_POINT ( 'NONE', #159 ) ;
#259 = CARTESIAN_POINT ( 'NONE',  ( 0.0000000000000000000, 0.0000000000000000000, 42.24999999999999289 ) ) ;
#260 = PRODUCT_CONTEXT ( 'NONE', #365, 'mechanical' ) ;
#261 = CARTESIAN_POINT ( 'NONE',  ( -30.00000000000000000, 3.673940397442059178E-15, 39.99999999999999289 ) ) ;
#262 = SURFACE_STYLE_FILL_AREA ( #293 ) ;
#263 = CARTESIAN_POINT ( 'NONE',  ( 0.0000000000000000000, 0.0000000000000000000, 98.43369195224448731 ) ) ;
#264 = EDGE_CURVE ( 'NONE', #20, #13, #247, .T. ) ;
#265 = CIRCLE ( 'NONE', #77, 8.250000000000000000 ) ;
#266 = AXIS2_PLACEMENT_3D ( 'NONE', #218, #42, #328 ) ;
#267 = SURFACE_SIDE_STYLE ('',( #203 ) ) ;
#268 = PLANE ( 'NONE',  #298 ) ;
#269 = ORIENTED_EDGE ( 'NONE', *, *, #37, .F. ) ;
#270 = CARTESIAN_POINT ( 'NONE',  ( 8.249999999999994671, 0.0000000000000000000, 98.43369195224448731 ) ) ;
#271 = EDGE_LOOP ( 'NONE', ( #343, #22, #86, #47 ) ) ;
#272 = VECTOR ( 'NONE', #324, 1000.000000000000000 ) ;
#273 = DIRECTION ( 'NONE',  ( -0.0000000000000000000, -0.0000000000000000000, 1.000000000000000000 ) ) ;
#274 = ORIENTED_EDGE ( 'NONE', *, *, #305, .F. ) ;
#275 = VERTEX_POINT ( 'NONE', #357 ) ;
#276 = PRODUCT_RELATED_PRODUCT_CATEGORY ( 'part', '', ( #52 ) ) ;
#277 = FACE_OUTER_BOUND ( 'NONE', #286, .T. ) ;
#278 = EDGE_CURVE ( 'NONE', #54, #369, #19, .T. ) ;
#279 = PRODUCT_DEFINITION_CONTEXT ( 'detailed design', #373, 'design' ) ;
#280 = EDGE_LOOP ( 'NONE', ( #222, #82 ) ) ;
#281 = ORIENTED_EDGE ( 'NONE', *, *, #73, .F. ) ;
#282 = EDGE_CURVE ( 'NONE', #20, #50, #265, .T. ) ;
#283 = FACE_OUTER_BOUND ( 'NONE', #337, .T. ) ;
#284 = EDGE_CURVE ( 'NONE', #105, #114, #358, .T. ) ;
#285 = VERTEX_POINT ( 'NONE', #83 ) ;
#286 = EDGE_LOOP ( 'NONE', ( #335, #371, #313, #367 ) ) ;
#287 = CIRCLE ( 'NONE', #349, 11.25000000000000000 ) ;
#288 = VERTEX_POINT ( 'NONE', #81 ) ;
#289 = EDGE_CURVE ( 'NONE', #116, #189, #49, .T. ) ;
#290 = DIRECTION ( 'NONE',  ( -0.0000000000000000000, -0.0000000000000000000, 1.000000000000000000 ) ) ;
#291 = DIRECTION ( 'NONE',  ( -0.0000000000000000000, -0.0000000000000000000, 1.000000000000000000 ) ) ;
#292 = AXIS2_PLACEMENT_3D ( 'NONE', #160, #354, #355 ) ;
#293 = FILL_AREA_STYLE ('',( #321 ) ) ;
#294 = EDGE_CURVE ( 'NONE', #258, #133, #251, .T. ) ;
#295 = DIRECTION ( 'NONE',  ( 1.000000000000000000, 0.0000000000000000000, 0.0000000000000000000 ) ) ;
#296 = CARTESIAN_POINT ( 'NONE',  ( -8.249999999999994671, 1.010333609296565958E-15, 98.43369195224448731 ) ) ;
#297 = MECHANICAL_DESIGN_GEOMETRIC_PRESENTATION_REPRESENTATION (  '', ( #51 ), #322 ) ;
#298 = AXIS2_PLACEMENT_3D ( 'NONE', #213, #165, #184 ) ;
#299 = FACE_OUTER_BOUND ( 'NONE', #316, .T. ) ;
#300 = ADVANCED_FACE ( 'NONE', ( #195 ), #14, .F. ) ;
#301 = ORIENTED_EDGE ( 'NONE', *, *, #65, .T. ) ;
#302 =( NAMED_UNIT ( * ) SI_UNIT ( $, .STERADIAN. ) SOLID_ANGLE_UNIT ( ) );
#303 = CIRCLE ( 'NONE', #40, 8.250000000000000000 ) ;
#304 = CYLINDRICAL_SURFACE ( 'NONE', #266, 30.00000000000000711 ) ;
#305 = EDGE_CURVE ( 'NONE', #275, #116, #8, .T. ) ;
#306 = ORIENTED_EDGE ( 'NONE', *, *, #71, .F. ) ;
#307 = CIRCLE ( 'NONE', #315, 8.249999999999989342 ) ;
#308 = DIRECTION ( 'NONE',  ( 1.000000000000000000, 0.0000000000000000000, 0.0000000000000000000 ) ) ;
#309 = ORIENTED_EDGE ( 'NONE', *, *, #278, .T. ) ;
#310 = CARTESIAN_POINT ( 'NONE',  ( 0.0000000000000000000, 0.0000000000000000000, 98.43369195224448731 ) ) ;
#311 = ORIENTED_EDGE ( 'NONE', *, *, #248, .F. ) ;
#312 = LINE ( 'NONE', #190, #323 ) ;
#313 = ORIENTED_EDGE ( 'NONE', *, *, #284, .F. ) ;
#314 =( NAMED_UNIT ( * ) SI_UNIT ( $, .STERADIAN. ) SOLID_ANGLE_UNIT ( ) );
#315 = AXIS2_PLACEMENT_3D ( 'NONE', #206, #352, #211 ) ;
#316 = EDGE_LOOP ( 'NONE', ( #306, #309, #362, #281 ) ) ;
#317 = EDGE_CURVE ( 'NONE', #112, #189, #226, .T. ) ;
#318 = ORIENTED_EDGE ( 'NONE', *, *, #48, .T. ) ;
#319 = CARTESIAN_POINT ( 'NONE',  ( 0.0000000000000000000, 0.0000000000000000000, 0.0000000000000000000 ) ) ;
#320 = FACE_OUTER_BOUND ( 'NONE', #172, .T. ) ;
#321 = FILL_AREA_STYLE_COLOUR ( '', #109 ) ;
#322 =( GEOMETRIC_REPRESENTATION_CONTEXT ( 3 ) GLOBAL_UNCERTAINTY_ASSIGNED_CONTEXT ( ( #175 ) ) GLOBAL_UNIT_ASSIGNED_CONTEXT ( ( #327, #39, #302 ) ) REPRESENTATION_CONTEXT ( 'NONE', 'WORKASPACE' ) );
#323 = VECTOR ( 'NONE', #171, 1000.000000000000000 ) ;
#324 = DIRECTION ( 'NONE',  ( -0.0000000000000000000, -0.0000000000000000000, 1.000000000000000000 ) ) ;
#325 = AXIS2_PLACEMENT_3D ( 'NONE', #151, #4, #181 ) ;
#326 = CARTESIAN_POINT ( 'NONE',  ( 0.0000000000000000000, 0.0000000000000000000, 39.99999999999998579 ) ) ;
#327 =( LENGTH_UNIT ( ) NAMED_UNIT ( * ) SI_UNIT ( .MILLI., .METRE. ) );
#328 = DIRECTION ( 'NONE',  ( 1.000000000000000000, 0.0000000000000000000, 0.0000000000000000000 ) ) ;
#329 = EDGE_CURVE ( 'NONE', #189, #112, #287, .T. ) ;
#330 = AXIS2_PLACEMENT_3D ( 'NONE', #153, #290, #57 ) ;
#331 = ORIENTED_EDGE ( 'NONE', *, *, #305, .T. ) ;
#332 = DIRECTION ( 'NONE',  ( -0.0000000000000000000, -0.0000000000000000000, 1.000000000000000000 ) ) ;
#333 = ORIENTED_EDGE ( 'NONE', *, *, #33, .F. ) ;
#334 = DIRECTION ( 'NONE',  ( -0.0000000000000000000, -0.0000000000000000000, 1.000000000000000000 ) ) ;
#335 = ORIENTED_EDGE ( 'NONE', *, *, #248, .T. ) ;
#336 = DIRECTION ( 'NONE',  ( 1.000000000000000000, 0.0000000000000000000, 0.0000000000000000000 ) ) ;
#337 = EDGE_LOOP ( 'NONE', ( #331, #231, #74, #269 ) ) ;
#338 = CARTESIAN_POINT ( 'NONE',  ( 0.0000000000000000000, 11.25000000000000000, -42.25000000000000711 ) ) ;
#339 = EDGE_LOOP ( 'NONE', ( #220, #76 ) ) ;
#340 = EDGE_LOOP ( 'NONE', ( #274, #170 ) ) ;
#341 = ADVANCED_FACE ( 'NONE', ( #168 ), #18, .T. ) ;
#342 = CIRCLE ( 'NONE', #124, 8.249999999999989342 ) ;
#343 = ORIENTED_EDGE ( 'NONE', *, *, #294, .F. ) ;
#344 = FACE_OUTER_BOUND ( 'NONE', #360, .T. ) ;
#345 = ADVANCED_FACE ( 'NONE', ( #283 ), #53, .T. ) ;
#346 = APPLICATION_PROTOCOL_DEFINITION ( 'draft international standard', 'automotive_design', 1998, #373 ) ;
#347 = SURFACE_STYLE_USAGE ( .BOTH. , #236 ) ;
#348 = VECTOR ( 'NONE', #32, 1000.000000000000000 ) ;
#349 = AXIS2_PLACEMENT_3D ( 'NONE', #75, #145, #72 ) ;
#350 = DIRECTION ( 'NONE',  ( 1.000000000000000000, 0.0000000000000000000, 0.0000000000000000000 ) ) ;
#351 = ADVANCED_FACE ( 'NONE', ( #227, #249 ), #257, .F. ) ;
#352 = DIRECTION ( 'NONE',  ( -0.0000000000000000000, -0.0000000000000000000, 1.000000000000000000 ) ) ;
#353 = DIRECTION ( 'NONE',  ( 1.000000000000000000, 0.0000000000000000000, 0.0000000000000000000 ) ) ;
#354 = DIRECTION ( 'NONE',  ( -0.0000000000000000000, -0.0000000000000000000, 1.000000000000000000 ) ) ;
#355 = DIRECTION ( 'NONE',  ( 1.000000000000000000, 0.0000000000000000000, 0.0000000000000000000 ) ) ;
#356 = EDGE_CURVE ( 'NONE', #288, #174, #312, .T. ) ;
#357 = CARTESIAN_POINT ( 'NONE',  ( 11.25000000000000000, 0.0000000000000000000, -42.25000000000002132 ) ) ;
#358 = CIRCLE ( 'NONE', #201, 30.00000000000000000 ) ;
#359 = DIRECTION ( 'NONE',  ( -0.0000000000000000000, -0.0000000000000000000, 1.000000000000000000 ) ) ;
#360 = EDGE_LOOP ( 'NONE', ( #242, #129, #78, #146 ) ) ;
#361 = APPLICATION_PROTOCOL_DEFINITION ( 'draft international standard', 'automotive_design', 1998, #365 ) ;
#362 = ORIENTED_EDGE ( 'NONE', *, *, #38, .T. ) ;
#363 = DIRECTION ( 'NONE',  ( -0.0000000000000000000, -0.0000000000000000000, 1.000000000000000000 ) ) ;
#364 = EDGE_LOOP ( 'NONE', ( #96, #101 ) ) ;
#365 = APPLICATION_CONTEXT ( 'automotive_design' ) ;
#366 = CARTESIAN_POINT ( 'NONE',  ( 0.0000000000000000000, 0.0000000000000000000, 98.43369195224448731 ) ) ;
#367 = ORIENTED_EDGE ( 'NONE', *, *, #38, .F. ) ;
#368 = CARTESIAN_POINT ( 'NONE',  ( 0.0000000000000000000, 0.0000000000000000000, -42.25000000000002132 ) ) ;
#369 = VERTEX_POINT ( 'NONE', #224 ) ;
#370 = CARTESIAN_POINT ( 'NONE',  ( 0.0000000000000000000, 0.0000000000000000000, 39.99999999999999289 ) ) ;
#371 = ORIENTED_EDGE ( 'NONE', *, *, #71, .T. ) ;
#372 = DIRECTION ( 'NONE',  ( -1.000000000000000000, 0.0000000000000000000, -0.0000000000000000000 ) ) ;
#373 = APPLICATION_CONTEXT ( 'automotive_design' ) ;
#374 = DIRECTION ( 'NONE',  ( -0.0000000000000000000, -0.0000000000000000000, 1.000000000000000000 ) ) ;
ENDSEC;
END-ISO-10303-21;
