ISO-10303-21;
HEADER;
FILE_DESCRIPTION (( 'STEP AP214' ),
    '1' );
FILE_NAME ('Rexnord-S0827-632113.STEP',
    '2019-06-18T08:29:14',
    ( '' ),
    ( '' ),
    'SwSTEP 2.0',
    'SolidWorks 2019',
    '' );
FILE_SCHEMA (( 'AUTOMOTIVE_DESIGN' ));
ENDSEC;

DATA;
#1 = VECTOR ( 'NONE', #96, 1000.000000000000000 ) ;
#2 = DIRECTION ( 'NONE',  ( -0.0000000000000000000, -0.0000000000000000000, -1.000000000000000000 ) ) ;
#3 = CIRCLE ( 'NONE', #140, 10.09999999999999964 ) ;
#4 = DIRECTION ( 'NONE',  ( 1.000000000000000000, 0.0000000000000000000, 0.0000000000000000000 ) ) ;
#5 = APPLICATION_CONTEXT ( 'automotive_design' ) ;
#6 = DIRECTION ( 'NONE',  ( 1.000000000000000000, 0.0000000000000000000, 0.0000000000000000000 ) ) ;
#7 = DIRECTION ( 'NONE',  ( 1.000000000000000000, 0.0000000000000000000, 0.0000000000000000000 ) ) ;
#8 = DIRECTION ( 'NONE',  ( 0.0000000000000000000, 0.0000000000000000000, 1.000000000000000000 ) ) ;
#9 = ORIENTED_EDGE ( 'NONE', *, *, #208, .T. ) ;
#10 = ORIENTED_EDGE ( 'NONE', *, *, #110, .T. ) ;
#11 = DIRECTION ( 'NONE',  ( 1.000000000000000000, 0.0000000000000000000, 0.0000000000000000000 ) ) ;
#12 = ORIENTED_EDGE ( 'NONE', *, *, #73, .T. ) ;
#13 = VERTEX_POINT ( 'NONE', #47 ) ;
#14 = FACE_OUTER_BOUND ( 'NONE', #194, .T. ) ;
#15 = EDGE_CURVE ( 'NONE', #192, #162, #166, .T. ) ;
#16 = DIRECTION ( 'NONE',  ( 0.0000000000000000000, 0.0000000000000000000, 1.000000000000000000 ) ) ;
#17 = AXIS2_PLACEMENT_3D ( 'NONE', #85, #205, #35 ) ;
#18 = CYLINDRICAL_SURFACE ( 'NONE', #74, 10.09999999999999964 ) ;
#19 = PLANE ( 'NONE',  #95 ) ;
#20 = DIRECTION ( 'NONE',  ( -0.0000000000000000000, -0.0000000000000000000, -1.000000000000000000 ) ) ;
#21 = DIRECTION ( 'NONE',  ( 1.000000000000000000, 0.0000000000000000000, 0.0000000000000000000 ) ) ;
#22 = SURFACE_SIDE_STYLE ('',( #69 ) ) ;
#23 = STYLED_ITEM ( 'NONE', ( #108 ), #79 ) ;
#24 =( LENGTH_UNIT ( ) NAMED_UNIT ( * ) SI_UNIT ( .MILLI., .METRE. ) );
#25 = ORIENTED_EDGE ( 'NONE', *, *, #179, .T. ) ;
#26 = CIRCLE ( 'NONE', #72, 27.50000000000000000 ) ;
#27 = CARTESIAN_POINT ( 'NONE',  ( 10.09999999999999964, 1.236893267138826614E-15, 1.000000000000000000 ) ) ;
#28 = VERTEX_POINT ( 'NONE', #80 ) ;
#29 = ORIENTED_EDGE ( 'NONE', *, *, #40, .F. ) ;
#30 = STYLED_ITEM ( 'NONE', ( #133 ), #67 ) ;
#31 = ORIENTED_EDGE ( 'NONE', *, *, #193, .F. ) ;
#32 = CARTESIAN_POINT ( 'NONE',  ( 0.0000000000000000000, 0.0000000000000000000, 1.000000000000000000 ) ) ;
#33 = DIRECTION ( 'NONE',  ( 1.000000000000000000, 0.0000000000000000000, -0.0000000000000000000 ) ) ;
#34 = MECHANICAL_DESIGN_GEOMETRIC_PRESENTATION_REPRESENTATION (  '', ( #30 ), #114 ) ;
#35 = DIRECTION ( 'NONE',  ( 1.000000000000000000, 0.0000000000000000000, 0.0000000000000000000 ) ) ;
#36 = AXIS2_PLACEMENT_3D ( 'NONE', #202, #64, #137 ) ;
#37 = ADVANCED_FACE ( 'NONE', ( #58 ), #43, .T. ) ;
#38 = LINE ( 'NONE', #168, #165 ) ;
#39 = VECTOR ( 'NONE', #174, 1000.000000000000000 ) ;
#40 = EDGE_CURVE ( 'NONE', #98, #141, #3, .T. ) ;
#41 =( NAMED_UNIT ( * ) SI_UNIT ( $, .STERADIAN. ) SOLID_ANGLE_UNIT ( ) );
#42 = DIRECTION ( 'NONE',  ( 1.000000000000000000, 0.0000000000000000000, 0.0000000000000000000 ) ) ;
#43 = CYLINDRICAL_SURFACE ( 'NONE', #129, 27.50000000000000000 ) ;
#44 = AXIS2_PLACEMENT_3D ( 'NONE', #206, #8, #7 ) ;
#45 = VERTEX_POINT ( 'NONE', #113 ) ;
#46 = VERTEX_POINT ( 'NONE', #181 ) ;
#47 = CARTESIAN_POINT ( 'NONE',  ( -10.09999999999999964, 0.0000000000000000000, -1.000000000000000000 ) ) ;
#48 = COLOUR_RGB ( '',0.2509803921568627416, 0.2509803921568627416, 0.2509803921568627416 ) ;
#49 =( NAMED_UNIT ( * ) SI_UNIT ( $, .STERADIAN. ) SOLID_ANGLE_UNIT ( ) );
#50 = FACE_OUTER_BOUND ( 'NONE', #62, .T. ) ;
#51 =( GEOMETRIC_REPRESENTATION_CONTEXT ( 3 ) GLOBAL_UNCERTAINTY_ASSIGNED_CONTEXT ( ( #143 ) ) GLOBAL_UNIT_ASSIGNED_CONTEXT ( ( #24, #139, #41 ) ) REPRESENTATION_CONTEXT ( 'NONE', 'WORKASPACE' ) );
#52 = CARTESIAN_POINT ( 'NONE',  ( -10.09999999999999964, 0.0000000000000000000, 1.000000000000000000 ) ) ;
#53 = EDGE_CURVE ( 'NONE', #98, #46, #177, .T. ) ;
#54 =( NAMED_UNIT ( * ) SI_UNIT ( $, .STERADIAN. ) SOLID_ANGLE_UNIT ( ) );
#55 =( LENGTH_UNIT ( ) NAMED_UNIT ( * ) SI_UNIT ( .MILLI., .METRE. ) );
#56 =( NAMED_UNIT ( * ) PLANE_ANGLE_UNIT ( ) SI_UNIT ( $, .RADIAN. ) );
#57 = CLOSED_SHELL ( 'NONE', ( #169, #134, #87, #188, #37, #94 ) ) ;
#58 = FACE_OUTER_BOUND ( 'NONE', #158, .T. ) ;
#59 = FILL_AREA_STYLE ('',( #210 ) ) ;
#60 = PRESENTATION_LAYER_ASSIGNMENT (  '', '', ( #23 ) ) ;
#61 = CARTESIAN_POINT ( 'NONE',  ( 0.0000000000000000000, 0.0000000000000000000, 1.000000000000000000 ) ) ;
#62 = EDGE_LOOP ( 'NONE', ( #212, #209 ) ) ;
#63 = DIRECTION ( 'NONE',  ( -1.000000000000000000, 0.0000000000000000000, 0.0000000000000000000 ) ) ;
#64 = DIRECTION ( 'NONE',  ( 0.0000000000000000000, 0.0000000000000000000, 1.000000000000000000 ) ) ;
#65 = SURFACE_SIDE_STYLE ('',( #196 ) ) ;
#66 = DIRECTION ( 'NONE',  ( -1.000000000000000000, 0.0000000000000000000, 0.0000000000000000000 ) ) ;
#67 = MANIFOLD_SOLID_BREP ( 'Boss-Extrude1', #57 ) ;
#68 = CARTESIAN_POINT ( 'NONE',  ( 0.0000000000000000000, 0.0000000000000000000, 1.000000000000000000 ) ) ;
#69 = SURFACE_STYLE_FILL_AREA ( #155 ) ;
#70 = PRODUCT_DEFINITION_SHAPE ( 'NONE', 'NONE',  #120 ) ;
#71 = AXIS2_PLACEMENT_3D ( 'NONE', #184, #167, #191 ) ;
#72 = AXIS2_PLACEMENT_3D ( 'NONE', #159, #201, #105 ) ;
#73 = EDGE_CURVE ( 'NONE', #28, #45, #26, .T. ) ;
#74 = AXIS2_PLACEMENT_3D ( 'NONE', #170, #20, #66 ) ;
#75 = ORIENTED_EDGE ( 'NONE', *, *, #53, .F. ) ;
#76 = PRODUCT_RELATED_PRODUCT_CATEGORY ( 'part', '', ( #187 ) ) ;
#77 = ORIENTED_EDGE ( 'NONE', *, *, #146, .F. ) ;
#78 = ORIENTED_EDGE ( 'NONE', *, *, #53, .T. ) ;
#79 = ADVANCED_BREP_SHAPE_REPRESENTATION ( 'Rexnord-S0827-632113', ( #67, #44 ), #51 ) ;
#80 = CARTESIAN_POINT ( 'NONE',  ( 27.50000000000000000, 3.367778697655221307E-15, -1.000000000000000000 ) ) ;
#81 = ORIENTED_EDGE ( 'NONE', *, *, #110, .F. ) ;
#82 = DIRECTION ( 'NONE',  ( 0.0000000000000000000, 0.0000000000000000000, 1.000000000000000000 ) ) ;
#83 = AXIS2_PLACEMENT_3D ( 'NONE', #119, #16, #4 ) ;
#84 = VECTOR ( 'NONE', #203, 1000.000000000000000 ) ;
#85 = CARTESIAN_POINT ( 'NONE',  ( 0.0000000000000000000, 0.0000000000000000000, -1.000000000000000000 ) ) ;
#86 = CARTESIAN_POINT ( 'NONE',  ( 10.09999999999999964, 1.236893267138826614E-15, 1.000000000000000000 ) ) ;
#87 = ADVANCED_FACE ( 'NONE', ( #150, #182 ), #19, .T. ) ;
#88 = FACE_OUTER_BOUND ( 'NONE', #180, .T. ) ;
#89 = DIRECTION ( 'NONE',  ( -0.0000000000000000000, -0.0000000000000000000, -1.000000000000000000 ) ) ;
#90 = CARTESIAN_POINT ( 'NONE',  ( 27.50000000000000000, 3.367778697655221307E-15, 1.000000000000000000 ) ) ;
#91 = CARTESIAN_POINT ( 'NONE',  ( 0.0000000000000000000, 0.0000000000000000000, 1.000000000000000000 ) ) ;
#92 = PRODUCT_DEFINITION_FORMATION_WITH_SPECIFIED_SOURCE ( 'ANY', '', #187, .NOT_KNOWN. ) ;
#93 = ORIENTED_EDGE ( 'NONE', *, *, #116, .T. ) ;
#94 = ADVANCED_FACE ( 'NONE', ( #183 ), #18, .F. ) ;
#95 = AXIS2_PLACEMENT_3D ( 'NONE', #122, #151, #33 ) ;
#96 = DIRECTION ( 'NONE',  ( -0.0000000000000000000, -0.0000000000000000000, -1.000000000000000000 ) ) ;
#97 = DIRECTION ( 'NONE',  ( -1.000000000000000000, 0.0000000000000000000, 0.0000000000000000000 ) ) ;
#98 = VERTEX_POINT ( 'NONE', #86 ) ;
#99 = EDGE_LOOP ( 'NONE', ( #198, #29 ) ) ;
#100 = LINE ( 'NONE', #52, #84 ) ;
#101 = AXIS2_PLACEMENT_3D ( 'NONE', #91, #106, #21 ) ;
#102 = AXIS2_PLACEMENT_3D ( 'NONE', #32, #89, #63 ) ;
#103 = PLANE ( 'NONE',  #71 ) ;
#104 = CARTESIAN_POINT ( 'NONE',  ( 0.0000000000000000000, 0.0000000000000000000, 1.000000000000000000 ) ) ;
#105 = DIRECTION ( 'NONE',  ( 1.000000000000000000, 0.0000000000000000000, 0.0000000000000000000 ) ) ;
#106 = DIRECTION ( 'NONE',  ( 0.0000000000000000000, 0.0000000000000000000, 1.000000000000000000 ) ) ;
#107 = CIRCLE ( 'NONE', #83, 27.50000000000000000 ) ;
#108 = PRESENTATION_STYLE_ASSIGNMENT (( #138 ) ) ;
#109 = PRODUCT_DEFINITION_CONTEXT ( 'detailed design', #5, 'design' ) ;
#110 = EDGE_CURVE ( 'NONE', #13, #46, #178, .T. ) ;
#111 = ORIENTED_EDGE ( 'NONE', *, *, #208, .F. ) ;
#112 = CIRCLE ( 'NONE', #36, 10.09999999999999964 ) ;
#113 = CARTESIAN_POINT ( 'NONE',  ( -27.50000000000000000, 0.0000000000000000000, -1.000000000000000000 ) ) ;
#114 =( GEOMETRIC_REPRESENTATION_CONTEXT ( 3 ) GLOBAL_UNCERTAINTY_ASSIGNED_CONTEXT ( ( #160 ) ) GLOBAL_UNIT_ASSIGNED_CONTEXT ( ( #153, #199, #49 ) ) REPRESENTATION_CONTEXT ( 'NONE', 'WORKASPACE' ) );
#115 = ORIENTED_EDGE ( 'NONE', *, *, #172, .T. ) ;
#116 = EDGE_CURVE ( 'NONE', #192, #45, #38, .T. ) ;
#117 = DIRECTION ( 'NONE',  ( -0.0000000000000000000, -0.0000000000000000000, -1.000000000000000000 ) ) ;
#118 = DIRECTION ( 'NONE',  ( 0.0000000000000000000, 0.0000000000000000000, 1.000000000000000000 ) ) ;
#119 = CARTESIAN_POINT ( 'NONE',  ( 0.0000000000000000000, 0.0000000000000000000, -1.000000000000000000 ) ) ;
#120 = PRODUCT_DEFINITION ( 'UNKNOWN', '', #92, #109 ) ;
#121 = FACE_BOUND ( 'NONE', #131, .T. ) ;
#122 = CARTESIAN_POINT ( 'NONE',  ( 0.0000000000000000000, 0.0000000000000000000, 1.000000000000000000 ) ) ;
#123 = DIRECTION ( 'NONE',  ( -0.0000000000000000000, -0.0000000000000000000, -1.000000000000000000 ) ) ;
#124 = FILL_AREA_STYLE_COLOUR ( '', #204 ) ;
#125 = LINE ( 'NONE', #90, #39 ) ;
#126 = APPLICATION_PROTOCOL_DEFINITION ( 'draft international standard', 'automotive_design', 1998, #5 ) ;
#127 = ORIENTED_EDGE ( 'NONE', *, *, #172, .F. ) ;
#128 = CARTESIAN_POINT ( 'NONE',  ( 0.0000000000000000000, 0.0000000000000000000, 1.000000000000000000 ) ) ;
#129 = AXIS2_PLACEMENT_3D ( 'NONE', #128, #117, #97 ) ;
#130 = ORIENTED_EDGE ( 'NONE', *, *, #116, .F. ) ;
#131 = EDGE_LOOP ( 'NONE', ( #10, #115 ) ) ;
#132 = ORIENTED_EDGE ( 'NONE', *, *, #146, .T. ) ;
#133 = PRESENTATION_STYLE_ASSIGNMENT (( #186 ) ) ;
#134 = ADVANCED_FACE ( 'NONE', ( #88 ), #136, .T. ) ;
#135 = DIRECTION ( 'NONE',  ( -1.000000000000000000, 0.0000000000000000000, 0.0000000000000000000 ) ) ;
#136 = CYLINDRICAL_SURFACE ( 'NONE', #102, 27.50000000000000000 ) ;
#137 = DIRECTION ( 'NONE',  ( 1.000000000000000000, 0.0000000000000000000, 0.0000000000000000000 ) ) ;
#138 = SURFACE_STYLE_USAGE ( .BOTH. , #22 ) ;
#139 =( NAMED_UNIT ( * ) PLANE_ANGLE_UNIT ( ) SI_UNIT ( $, .RADIAN. ) );
#140 = AXIS2_PLACEMENT_3D ( 'NONE', #161, #142, #11 ) ;
#141 = VERTEX_POINT ( 'NONE', #149 ) ;
#142 = DIRECTION ( 'NONE',  ( 0.0000000000000000000, 0.0000000000000000000, 1.000000000000000000 ) ) ;
#143 = UNCERTAINTY_MEASURE_WITH_UNIT (LENGTH_MEASURE( 1.000000000000000082E-05 ), #24, 'distance_accuracy_value', 'NONE');
#144 = ORIENTED_EDGE ( 'NONE', *, *, #40, .T. ) ;
#145 = ORIENTED_EDGE ( 'NONE', *, *, #15, .T. ) ;
#146 = EDGE_CURVE ( 'NONE', #141, #13, #100, .T. ) ;
#147 = CYLINDRICAL_SURFACE ( 'NONE', #152, 10.09999999999999964 ) ;
#148 = AXIS2_PLACEMENT_3D ( 'NONE', #61, #118, #42 ) ;
#149 = CARTESIAN_POINT ( 'NONE',  ( -10.09999999999999964, 0.0000000000000000000, 1.000000000000000000 ) ) ;
#150 = FACE_OUTER_BOUND ( 'NONE', #214, .T. ) ;
#151 = DIRECTION ( 'NONE',  ( 0.0000000000000000000, 0.0000000000000000000, 1.000000000000000000 ) ) ;
#152 = AXIS2_PLACEMENT_3D ( 'NONE', #68, #2, #135 ) ;
#153 =( LENGTH_UNIT ( ) NAMED_UNIT ( * ) SI_UNIT ( .MILLI., .METRE. ) );
#154 = EDGE_CURVE ( 'NONE', #141, #98, #176, .T. ) ;
#155 = FILL_AREA_STYLE ('',( #124 ) ) ;
#156 = PRESENTATION_LAYER_ASSIGNMENT (  '', '', ( #30 ) ) ;
#157 = UNCERTAINTY_MEASURE_WITH_UNIT (LENGTH_MEASURE( 1.000000000000000082E-05 ), #55, 'distance_accuracy_value', 'NONE');
#158 = EDGE_LOOP ( 'NONE', ( #31, #163, #93, #25 ) ) ;
#159 = CARTESIAN_POINT ( 'NONE',  ( 0.0000000000000000000, 0.0000000000000000000, -1.000000000000000000 ) ) ;
#160 = UNCERTAINTY_MEASURE_WITH_UNIT (LENGTH_MEASURE( 1.000000000000000082E-05 ), #153, 'distance_accuracy_value', 'NONE');
#161 = CARTESIAN_POINT ( 'NONE',  ( 0.0000000000000000000, 0.0000000000000000000, 1.000000000000000000 ) ) ;
#162 = VERTEX_POINT ( 'NONE', #164 ) ;
#163 = ORIENTED_EDGE ( 'NONE', *, *, #15, .F. ) ;
#164 = CARTESIAN_POINT ( 'NONE',  ( 27.50000000000000000, 3.367778697655221307E-15, 1.000000000000000000 ) ) ;
#165 = VECTOR ( 'NONE', #123, 1000.000000000000000 ) ;
#166 = CIRCLE ( 'NONE', #148, 27.50000000000000000 ) ;
#167 = DIRECTION ( 'NONE',  ( 0.0000000000000000000, 0.0000000000000000000, 1.000000000000000000 ) ) ;
#168 = CARTESIAN_POINT ( 'NONE',  ( -27.50000000000000000, 0.0000000000000000000, 1.000000000000000000 ) ) ;
#169 = ADVANCED_FACE ( 'NONE', ( #14 ), #147, .F. ) ;
#170 = CARTESIAN_POINT ( 'NONE',  ( 0.0000000000000000000, 0.0000000000000000000, 1.000000000000000000 ) ) ;
#171 = SHAPE_DEFINITION_REPRESENTATION ( #70, #79 ) ;
#172 = EDGE_CURVE ( 'NONE', #46, #13, #112, .T. ) ;
#173 = CARTESIAN_POINT ( 'NONE',  ( -27.50000000000000000, 0.0000000000000000000, 1.000000000000000000 ) ) ;
#174 = DIRECTION ( 'NONE',  ( -0.0000000000000000000, -0.0000000000000000000, -1.000000000000000000 ) ) ;
#175 = EDGE_LOOP ( 'NONE', ( #75, #144, #132, #127 ) ) ;
#176 = CIRCLE ( 'NONE', #200, 10.09999999999999964 ) ;
#177 = LINE ( 'NONE', #27, #1 ) ;
#178 = CIRCLE ( 'NONE', #17, 10.09999999999999964 ) ;
#179 = EDGE_CURVE ( 'NONE', #45, #28, #107, .T. ) ;
#180 = EDGE_LOOP ( 'NONE', ( #111, #213, #12, #130 ) ) ;
#181 = CARTESIAN_POINT ( 'NONE',  ( 10.09999999999999964, 1.236893267138826614E-15, -1.000000000000000000 ) ) ;
#182 = FACE_BOUND ( 'NONE', #99, .T. ) ;
#183 = FACE_OUTER_BOUND ( 'NONE', #175, .T. ) ;
#184 = CARTESIAN_POINT ( 'NONE',  ( 0.0000000000000000000, 0.0000000000000000000, -1.000000000000000000 ) ) ;
#185 = MECHANICAL_DESIGN_GEOMETRIC_PRESENTATION_REPRESENTATION (  '', ( #23 ), #211 ) ;
#186 = SURFACE_STYLE_USAGE ( .BOTH. , #65 ) ;
#187 = PRODUCT ( 'Rexnord-S0827-632113', 'Rexnord-S0827-632113', '', ( #189 ) ) ;
#188 = ADVANCED_FACE ( 'NONE', ( #50, #121 ), #103, .F. ) ;
#189 = PRODUCT_CONTEXT ( 'NONE', #207, 'mechanical' ) ;
#190 = APPLICATION_PROTOCOL_DEFINITION ( 'draft international standard', 'automotive_design', 1998, #207 ) ;
#191 = DIRECTION ( 'NONE',  ( 1.000000000000000000, 0.0000000000000000000, -0.0000000000000000000 ) ) ;
#192 = VERTEX_POINT ( 'NONE', #173 ) ;
#193 = EDGE_CURVE ( 'NONE', #162, #28, #125, .T. ) ;
#194 = EDGE_LOOP ( 'NONE', ( #197, #78, #81, #77 ) ) ;
#195 = CIRCLE ( 'NONE', #101, 27.50000000000000000 ) ;
#196 = SURFACE_STYLE_FILL_AREA ( #59 ) ;
#197 = ORIENTED_EDGE ( 'NONE', *, *, #154, .T. ) ;
#198 = ORIENTED_EDGE ( 'NONE', *, *, #154, .F. ) ;
#199 =( NAMED_UNIT ( * ) PLANE_ANGLE_UNIT ( ) SI_UNIT ( $, .RADIAN. ) );
#200 = AXIS2_PLACEMENT_3D ( 'NONE', #104, #82, #6 ) ;
#201 = DIRECTION ( 'NONE',  ( 0.0000000000000000000, 0.0000000000000000000, 1.000000000000000000 ) ) ;
#202 = CARTESIAN_POINT ( 'NONE',  ( 0.0000000000000000000, 0.0000000000000000000, -1.000000000000000000 ) ) ;
#203 = DIRECTION ( 'NONE',  ( -0.0000000000000000000, -0.0000000000000000000, -1.000000000000000000 ) ) ;
#204 = COLOUR_RGB ( '',0.2509803921568627416, 0.2509803921568627416, 0.2509803921568627416 ) ;
#205 = DIRECTION ( 'NONE',  ( 0.0000000000000000000, 0.0000000000000000000, 1.000000000000000000 ) ) ;
#206 = CARTESIAN_POINT ( 'NONE',  ( 0.0000000000000000000, 0.0000000000000000000, 0.0000000000000000000 ) ) ;
#207 = APPLICATION_CONTEXT ( 'automotive_design' ) ;
#208 = EDGE_CURVE ( 'NONE', #162, #192, #195, .T. ) ;
#209 = ORIENTED_EDGE ( 'NONE', *, *, #73, .F. ) ;
#210 = FILL_AREA_STYLE_COLOUR ( '', #48 ) ;
#211 =( GEOMETRIC_REPRESENTATION_CONTEXT ( 3 ) GLOBAL_UNCERTAINTY_ASSIGNED_CONTEXT ( ( #157 ) ) GLOBAL_UNIT_ASSIGNED_CONTEXT ( ( #55, #56, #54 ) ) REPRESENTATION_CONTEXT ( 'NONE', 'WORKASPACE' ) );
#212 = ORIENTED_EDGE ( 'NONE', *, *, #179, .F. ) ;
#213 = ORIENTED_EDGE ( 'NONE', *, *, #193, .T. ) ;
#214 = EDGE_LOOP ( 'NONE', ( #145, #9 ) ) ;
ENDSEC;
END-ISO-10303-21;
