ISO-10303-21;
HEADER;
FILE_DESCRIPTION (( 'STEP AP214' ),
    '1' );
FILE_NAME ('70E3D146-0397-4216-AC42-DCCCF6DFB2DB.STEP',
    '2023-07-31T06:51:30',
    ( '' ),
    ( '' ),
    'SwSTEP 2.0',
    'SolidWorks 2022',
    '' );
FILE_SCHEMA (( 'AUTOMOTIVE_DESIGN' ));
ENDSEC;

DATA;
#1 = DIRECTION ( 'NONE',  ( -1.000000000000000000, 0.0000000000000000000, 0.0000000000000000000 ) ) ;
#2 = SURFACE_STYLE_USAGE ( .BOTH. , #105 ) ;
#3 = DIRECTION ( 'NONE',  ( -0.0000000000000000000, -0.0000000000000000000, -1.000000000000000000 ) ) ;
#4 = DIRECTION ( 'NONE',  ( -0.0000000000000000000, -0.0000000000000000000, -1.000000000000000000 ) ) ;
#5 = CARTESIAN_POINT ( 'NONE',  ( 0.0000000000000000000, 0.0000000000000000000, -1.000000000000000000 ) ) ;
#6 = PRODUCT_CONTEXT ( 'NONE', #75, 'mechanical' ) ;
#7 = DIRECTION ( 'NONE',  ( 1.000000000000000000, 0.0000000000000000000, 0.0000000000000000000 ) ) ;
#8 = SURFACE_SIDE_STYLE ('',( #93 ) ) ;
#9 = PRESENTATION_LAYER_ASSIGNMENT (  '', '', ( #96 ) ) ;
#10 = EDGE_LOOP ( 'NONE', ( #131, #213, #190, #147 ) ) ;
#11 = CARTESIAN_POINT ( 'NONE',  ( 0.0000000000000000000, 0.0000000000000000000, 1.000000000000000000 ) ) ;
#12 = PRODUCT_DEFINITION_SHAPE ( 'NONE', 'NONE',  #113 ) ;
#13 = AXIS2_PLACEMENT_3D ( 'NONE', #5, #162, #52 ) ;
#14 = EDGE_LOOP ( 'NONE', ( #144, #128 ) ) ;
#15 = ORIENTED_EDGE ( 'NONE', *, *, #41, .F. ) ;
#16 = ORIENTED_EDGE ( 'NONE', *, *, #73, .F. ) ;
#17 = EDGE_CURVE ( 'NONE', #157, #211, #193, .T. ) ;
#18 = CIRCLE ( 'NONE', #209, 27.50000000000000000 ) ;
#19 = FACE_OUTER_BOUND ( 'NONE', #65, .T. ) ;
#20 = DIRECTION ( 'NONE',  ( 0.0000000000000000000, 0.0000000000000000000, 1.000000000000000000 ) ) ;
#21 = CARTESIAN_POINT ( 'NONE',  ( 27.50000000000000000, 3.367778697655221307E-15, 1.000000000000000000 ) ) ;
#22 = SURFACE_STYLE_FILL_AREA ( #151 ) ;
#23 =( GEOMETRIC_REPRESENTATION_CONTEXT ( 3 ) GLOBAL_UNCERTAINTY_ASSIGNED_CONTEXT ( ( #46 ) ) GLOBAL_UNIT_ASSIGNED_CONTEXT ( ( #168, #39, #24 ) ) REPRESENTATION_CONTEXT ( 'NONE', 'WORKASPACE' ) );
#24 =( NAMED_UNIT ( * ) SI_UNIT ( $, .STERADIAN. ) SOLID_ANGLE_UNIT ( ) );
#25 = MECHANICAL_DESIGN_GEOMETRIC_PRESENTATION_REPRESENTATION (  '', ( #90 ), #206 ) ;
#26 = EDGE_CURVE ( 'NONE', #31, #211, #76, .T. ) ;
#27 = VERTEX_POINT ( 'NONE', #101 ) ;
#28 = FACE_OUTER_BOUND ( 'NONE', #10, .T. ) ;
#29 = ORIENTED_EDGE ( 'NONE', *, *, #26, .F. ) ;
#30 = ORIENTED_EDGE ( 'NONE', *, *, #116, .T. ) ;
#31 = VERTEX_POINT ( 'NONE', #173 ) ;
#32 = AXIS2_PLACEMENT_3D ( 'NONE', #179, #3, #167 ) ;
#33 = CARTESIAN_POINT ( 'NONE',  ( 0.0000000000000000000, 0.0000000000000000000, -1.000000000000000000 ) ) ;
#34 = ADVANCED_FACE ( 'NONE', ( #28 ), #80, .F. ) ;
#35 = DIRECTION ( 'NONE',  ( 1.000000000000000000, 0.0000000000000000000, 0.0000000000000000000 ) ) ;
#36 = CARTESIAN_POINT ( 'NONE',  ( -8.099999999999999645, 0.0000000000000000000, -1.000000000000000000 ) ) ;
#37 = CARTESIAN_POINT ( 'NONE',  ( 8.099999999999999645, 9.919639073093559228E-16, 1.000000000000000000 ) ) ;
#38 = PRESENTATION_STYLE_ASSIGNMENT (( #78 ) ) ;
#39 =( NAMED_UNIT ( * ) PLANE_ANGLE_UNIT ( ) SI_UNIT ( $, .RADIAN. ) );
#40 = AXIS2_PLACEMENT_3D ( 'NONE', #56, #87, #121 ) ;
#41 = EDGE_CURVE ( 'NONE', #158, #83, #45, .T. ) ;
#42 = CARTESIAN_POINT ( 'NONE',  ( 0.0000000000000000000, 0.0000000000000000000, 0.0000000000000000000 ) ) ;
#43 = PRODUCT_DEFINITION_CONTEXT ( 'detailed design', #169, 'design' ) ;
#44 = ORIENTED_EDGE ( 'NONE', *, *, #133, .F. ) ;
#45 = CIRCLE ( 'NONE', #141, 8.099999999999999645 ) ;
#46 = UNCERTAINTY_MEASURE_WITH_UNIT (LENGTH_MEASURE( 1.000000000000000082E-05 ), #168, 'distance_accuracy_value', 'NONE');
#47 = ORIENTED_EDGE ( 'NONE', *, *, #73, .T. ) ;
#48 = DIRECTION ( 'NONE',  ( 1.000000000000000000, 0.0000000000000000000, 0.0000000000000000000 ) ) ;
#49 = DIRECTION ( 'NONE',  ( 1.000000000000000000, 0.0000000000000000000, 0.0000000000000000000 ) ) ;
#50 = VECTOR ( 'NONE', #159, 1000.000000000000000 ) ;
#51 = CYLINDRICAL_SURFACE ( 'NONE', #166, 8.099999999999999645 ) ;
#52 = DIRECTION ( 'NONE',  ( 1.000000000000000000, 0.0000000000000000000, 0.0000000000000000000 ) ) ;
#53 = CARTESIAN_POINT ( 'NONE',  ( 8.099999999999999645, 9.919639073093559228E-16, 1.000000000000000000 ) ) ;
#54 = DIRECTION ( 'NONE',  ( -0.0000000000000000000, -0.0000000000000000000, -1.000000000000000000 ) ) ;
#55 = CARTESIAN_POINT ( 'NONE',  ( -8.099999999999999645, 0.0000000000000000000, 1.000000000000000000 ) ) ;
#56 = CARTESIAN_POINT ( 'NONE',  ( 0.0000000000000000000, 0.0000000000000000000, 1.000000000000000000 ) ) ;
#57 = VECTOR ( 'NONE', #4, 1000.000000000000000 ) ;
#58 = ADVANCED_FACE ( 'NONE', ( #130 ), #51, .F. ) ;
#59 =( NAMED_UNIT ( * ) SI_UNIT ( $, .STERADIAN. ) SOLID_ANGLE_UNIT ( ) );
#60 = CARTESIAN_POINT ( 'NONE',  ( -27.50000000000000000, 0.0000000000000000000, -1.000000000000000000 ) ) ;
#61 = AXIS2_PLACEMENT_3D ( 'NONE', #183, #20, #88 ) ;
#62 = EDGE_LOOP ( 'NONE', ( #115, #15 ) ) ;
#63 = AXIS2_PLACEMENT_3D ( 'NONE', #110, #154, #74 ) ;
#64 = DIRECTION ( 'NONE',  ( 1.000000000000000000, 0.0000000000000000000, 0.0000000000000000000 ) ) ;
#65 = EDGE_LOOP ( 'NONE', ( #143, #16, #176, #118 ) ) ;
#66 = PRODUCT_RELATED_PRODUCT_CATEGORY ( 'part', '', ( #127 ) ) ;
#67 = EDGE_LOOP ( 'NONE', ( #81, #145, #172, #195 ) ) ;
#68 = CARTESIAN_POINT ( 'NONE',  ( 0.0000000000000000000, 0.0000000000000000000, 1.000000000000000000 ) ) ;
#69 = PRESENTATION_STYLE_ASSIGNMENT (( #2 ) ) ;
#70 = CIRCLE ( 'NONE', #13, 8.099999999999999645 ) ;
#71 = FACE_BOUND ( 'NONE', #14, .T. ) ;
#72 = DIRECTION ( 'NONE',  ( 0.0000000000000000000, 0.0000000000000000000, 1.000000000000000000 ) ) ;
#73 = EDGE_CURVE ( 'NONE', #157, #102, #148, .T. ) ;
#74 = DIRECTION ( 'NONE',  ( -1.000000000000000000, 0.0000000000000000000, 0.0000000000000000000 ) ) ;
#75 = APPLICATION_CONTEXT ( 'automotive_design' ) ;
#76 = CIRCLE ( 'NONE', #189, 27.50000000000000000 ) ;
#77 = FILL_AREA_STYLE ('',( #99 ) ) ;
#78 = SURFACE_STYLE_USAGE ( .BOTH. , #8 ) ;
#79 = AXIS2_PLACEMENT_3D ( 'NONE', #68, #188, #48 ) ;
#80 = CYLINDRICAL_SURFACE ( 'NONE', #194, 8.099999999999999645 ) ;
#81 = ORIENTED_EDGE ( 'NONE', *, *, #192, .F. ) ;
#82 = COLOUR_RGB ( '',0.2509803921568627416, 0.2509803921568627416, 0.2509803921568627416 ) ;
#83 = VERTEX_POINT ( 'NONE', #55 ) ;
#84 = CARTESIAN_POINT ( 'NONE',  ( 0.0000000000000000000, 0.0000000000000000000, -1.000000000000000000 ) ) ;
#85 = ORIENTED_EDGE ( 'NONE', *, *, #108, .F. ) ;
#86 =( GEOMETRIC_REPRESENTATION_CONTEXT ( 3 ) GLOBAL_UNCERTAINTY_ASSIGNED_CONTEXT ( ( #117 ) ) GLOBAL_UNIT_ASSIGNED_CONTEXT ( ( #178, #199, #163 ) ) REPRESENTATION_CONTEXT ( 'NONE', 'WORKASPACE' ) );
#87 = DIRECTION ( 'NONE',  ( 0.0000000000000000000, 0.0000000000000000000, 1.000000000000000000 ) ) ;
#88 = DIRECTION ( 'NONE',  ( 1.000000000000000000, 0.0000000000000000000, -0.0000000000000000000 ) ) ;
#89 = DIRECTION ( 'NONE',  ( 1.000000000000000000, 0.0000000000000000000, 0.0000000000000000000 ) ) ;
#90 = STYLED_ITEM ( 'NONE', ( #38 ), #202 ) ;
#91 = ADVANCED_FACE ( 'NONE', ( #122, #71 ), #196, .F. ) ;
#92 = FILL_AREA_STYLE_COLOUR ( '', #82 ) ;
#93 = SURFACE_STYLE_FILL_AREA ( #77 ) ;
#94 = CLOSED_SHELL ( 'NONE', ( #58, #212, #126, #91, #140, #34 ) ) ;
#95 = UNCERTAINTY_MEASURE_WITH_UNIT (LENGTH_MEASURE( 1.000000000000000082E-05 ), #207, 'distance_accuracy_value', 'NONE');
#96 = STYLED_ITEM ( 'NONE', ( #69 ), #184 ) ;
#97 = DIRECTION ( 'NONE',  ( 0.0000000000000000000, 0.0000000000000000000, 1.000000000000000000 ) ) ;
#98 = CARTESIAN_POINT ( 'NONE',  ( 0.0000000000000000000, 0.0000000000000000000, 1.000000000000000000 ) ) ;
#99 = FILL_AREA_STYLE_COLOUR ( '', #125 ) ;
#100 = EDGE_LOOP ( 'NONE', ( #47, #132 ) ) ;
#101 = CARTESIAN_POINT ( 'NONE',  ( 8.099999999999999645, 9.919639073093559228E-16, -1.000000000000000000 ) ) ;
#102 = VERTEX_POINT ( 'NONE', #21 ) ;
#103 = CARTESIAN_POINT ( 'NONE',  ( 0.0000000000000000000, 0.0000000000000000000, 1.000000000000000000 ) ) ;
#104 = VECTOR ( 'NONE', #54, 1000.000000000000000 ) ;
#105 = SURFACE_SIDE_STYLE ('',( #22 ) ) ;
#106 = CARTESIAN_POINT ( 'NONE',  ( 27.50000000000000000, 3.367778697655221307E-15, 1.000000000000000000 ) ) ;
#107 = PLANE ( 'NONE',  #138 ) ;
#108 = EDGE_CURVE ( 'NONE', #211, #31, #136, .T. ) ;
#109 = DIRECTION ( 'NONE',  ( 1.000000000000000000, 0.0000000000000000000, -0.0000000000000000000 ) ) ;
#110 = CARTESIAN_POINT ( 'NONE',  ( 0.0000000000000000000, 0.0000000000000000000, 1.000000000000000000 ) ) ;
#111 = DIRECTION ( 'NONE',  ( 0.0000000000000000000, 0.0000000000000000000, 1.000000000000000000 ) ) ;
#112 = AXIS2_PLACEMENT_3D ( 'NONE', #42, #111, #7 ) ;
#113 = PRODUCT_DEFINITION ( 'UNKNOWN', '', #203, #43 ) ;
#114 = ORIENTED_EDGE ( 'NONE', *, *, #185, .F. ) ;
#115 = ORIENTED_EDGE ( 'NONE', *, *, #155, .F. ) ;
#116 = EDGE_CURVE ( 'NONE', #158, #27, #164, .T. ) ;
#117 = UNCERTAINTY_MEASURE_WITH_UNIT (LENGTH_MEASURE( 1.000000000000000082E-05 ), #178, 'distance_accuracy_value', 'NONE');
#118 = ORIENTED_EDGE ( 'NONE', *, *, #108, .T. ) ;
#119 = CARTESIAN_POINT ( 'NONE',  ( -27.50000000000000000, 0.0000000000000000000, 1.000000000000000000 ) ) ;
#120 = DIRECTION ( 'NONE',  ( -0.0000000000000000000, -0.0000000000000000000, -1.000000000000000000 ) ) ;
#121 = DIRECTION ( 'NONE',  ( 1.000000000000000000, 0.0000000000000000000, 0.0000000000000000000 ) ) ;
#122 = FACE_OUTER_BOUND ( 'NONE', #174, .T. ) ;
#123 = CARTESIAN_POINT ( 'NONE',  ( 0.0000000000000000000, 0.0000000000000000000, 1.000000000000000000 ) ) ;
#124 = FACE_BOUND ( 'NONE', #62, .T. ) ;
#125 = COLOUR_RGB ( '',0.2509803921568627416, 0.2509803921568627416, 0.2509803921568627416 ) ;
#126 = ADVANCED_FACE ( 'NONE', ( #135, #124 ), #107, .T. ) ;
#127 = PRODUCT ( '70E3D146-0397-4216-AC42-DCCCF6DFB2DB', '70E3D146-0397-4216-AC42-DCCCF6DFB2DB', '', ( #6 ) ) ;
#128 = ORIENTED_EDGE ( 'NONE', *, *, #146, .T. ) ;
#129 = VECTOR ( 'NONE', #153, 1000.000000000000000 ) ;
#130 = FACE_OUTER_BOUND ( 'NONE', #208, .T. ) ;
#131 = ORIENTED_EDGE ( 'NONE', *, *, #116, .F. ) ;
#132 = ORIENTED_EDGE ( 'NONE', *, *, #192, .T. ) ;
#133 = EDGE_CURVE ( 'NONE', #160, #27, #70, .T. ) ;
#134 = DIRECTION ( 'NONE',  ( 0.0000000000000000000, 0.0000000000000000000, 1.000000000000000000 ) ) ;
#135 = FACE_OUTER_BOUND ( 'NONE', #100, .T. ) ;
#136 = CIRCLE ( 'NONE', #170, 27.50000000000000000 ) ;
#137 = CYLINDRICAL_SURFACE ( 'NONE', #32, 27.50000000000000000 ) ;
#138 = AXIS2_PLACEMENT_3D ( 'NONE', #103, #134, #109 ) ;
#139 = APPLICATION_PROTOCOL_DEFINITION ( 'draft international standard', 'automotive_design', 1998, #169 ) ;
#140 = ADVANCED_FACE ( 'NONE', ( #19 ), #137, .T. ) ;
#141 = AXIS2_PLACEMENT_3D ( 'NONE', #11, #177, #64 ) ;
#142 = DIRECTION ( 'NONE',  ( -0.0000000000000000000, -0.0000000000000000000, -1.000000000000000000 ) ) ;
#143 = ORIENTED_EDGE ( 'NONE', *, *, #200, .F. ) ;
#144 = ORIENTED_EDGE ( 'NONE', *, *, #133, .T. ) ;
#145 = ORIENTED_EDGE ( 'NONE', *, *, #200, .T. ) ;
#146 = EDGE_CURVE ( 'NONE', #27, #160, #175, .T. ) ;
#147 = ORIENTED_EDGE ( 'NONE', *, *, #146, .F. ) ;
#148 = CIRCLE ( 'NONE', #79, 27.50000000000000000 ) ;
#149 = CARTESIAN_POINT ( 'NONE',  ( -27.50000000000000000, 0.0000000000000000000, 1.000000000000000000 ) ) ;
#150 = DIRECTION ( 'NONE',  ( 1.000000000000000000, 0.0000000000000000000, 0.0000000000000000000 ) ) ;
#151 = FILL_AREA_STYLE ('',( #92 ) ) ;
#152 = AXIS2_PLACEMENT_3D ( 'NONE', #182, #201, #89 ) ;
#153 = DIRECTION ( 'NONE',  ( -0.0000000000000000000, -0.0000000000000000000, -1.000000000000000000 ) ) ;
#154 = DIRECTION ( 'NONE',  ( -0.0000000000000000000, -0.0000000000000000000, -1.000000000000000000 ) ) ;
#155 = EDGE_CURVE ( 'NONE', #83, #158, #186, .T. ) ;
#156 = APPLICATION_PROTOCOL_DEFINITION ( 'draft international standard', 'automotive_design', 1998, #75 ) ;
#157 = VERTEX_POINT ( 'NONE', #149 ) ;
#158 = VERTEX_POINT ( 'NONE', #53 ) ;
#159 = DIRECTION ( 'NONE',  ( -0.0000000000000000000, -0.0000000000000000000, -1.000000000000000000 ) ) ;
#160 = VERTEX_POINT ( 'NONE', #36 ) ;
#161 = ORIENTED_EDGE ( 'NONE', *, *, #155, .T. ) ;
#162 = DIRECTION ( 'NONE',  ( 0.0000000000000000000, 0.0000000000000000000, 1.000000000000000000 ) ) ;
#163 =( NAMED_UNIT ( * ) SI_UNIT ( $, .STERADIAN. ) SOLID_ANGLE_UNIT ( ) );
#164 = LINE ( 'NONE', #37, #57 ) ;
#165 = LINE ( 'NONE', #106, #129 ) ;
#166 = AXIS2_PLACEMENT_3D ( 'NONE', #191, #120, #1 ) ;
#167 = DIRECTION ( 'NONE',  ( -1.000000000000000000, 0.0000000000000000000, 0.0000000000000000000 ) ) ;
#168 =( LENGTH_UNIT ( ) NAMED_UNIT ( * ) SI_UNIT ( .MILLI., .METRE. ) );
#169 = APPLICATION_CONTEXT ( 'automotive_design' ) ;
#170 = AXIS2_PLACEMENT_3D ( 'NONE', #33, #72, #150 ) ;
#171 = CYLINDRICAL_SURFACE ( 'NONE', #63, 27.50000000000000000 ) ;
#172 = ORIENTED_EDGE ( 'NONE', *, *, #26, .T. ) ;
#173 = CARTESIAN_POINT ( 'NONE',  ( 27.50000000000000000, 3.367778697655221307E-15, -1.000000000000000000 ) ) ;
#174 = EDGE_LOOP ( 'NONE', ( #85, #29 ) ) ;
#175 = CIRCLE ( 'NONE', #152, 8.099999999999999645 ) ;
#176 = ORIENTED_EDGE ( 'NONE', *, *, #17, .T. ) ;
#177 = DIRECTION ( 'NONE',  ( 0.0000000000000000000, 0.0000000000000000000, 1.000000000000000000 ) ) ;
#178 =( LENGTH_UNIT ( ) NAMED_UNIT ( * ) SI_UNIT ( .MILLI., .METRE. ) );
#179 = CARTESIAN_POINT ( 'NONE',  ( 0.0000000000000000000, 0.0000000000000000000, 1.000000000000000000 ) ) ;
#180 = PRESENTATION_LAYER_ASSIGNMENT (  '', '', ( #90 ) ) ;
#181 = DIRECTION ( 'NONE',  ( 0.0000000000000000000, 0.0000000000000000000, 1.000000000000000000 ) ) ;
#182 = CARTESIAN_POINT ( 'NONE',  ( 0.0000000000000000000, 0.0000000000000000000, -1.000000000000000000 ) ) ;
#183 = CARTESIAN_POINT ( 'NONE',  ( 0.0000000000000000000, 0.0000000000000000000, -1.000000000000000000 ) ) ;
#184 = MANIFOLD_SOLID_BREP ( 'Boss-Extrude1', #94 ) ;
#185 = EDGE_CURVE ( 'NONE', #83, #160, #197, .T. ) ;
#186 = CIRCLE ( 'NONE', #40, 8.099999999999999645 ) ;
#187 = FACE_OUTER_BOUND ( 'NONE', #67, .T. ) ;
#188 = DIRECTION ( 'NONE',  ( 0.0000000000000000000, 0.0000000000000000000, 1.000000000000000000 ) ) ;
#189 = AXIS2_PLACEMENT_3D ( 'NONE', #84, #97, #49 ) ;
#190 = ORIENTED_EDGE ( 'NONE', *, *, #185, .T. ) ;
#191 = CARTESIAN_POINT ( 'NONE',  ( 0.0000000000000000000, 0.0000000000000000000, 1.000000000000000000 ) ) ;
#192 = EDGE_CURVE ( 'NONE', #102, #157, #18, .T. ) ;
#193 = LINE ( 'NONE', #119, #50 ) ;
#194 = AXIS2_PLACEMENT_3D ( 'NONE', #98, #142, #214 ) ;
#195 = ORIENTED_EDGE ( 'NONE', *, *, #17, .F. ) ;
#196 = PLANE ( 'NONE',  #61 ) ;
#197 = LINE ( 'NONE', #198, #104 ) ;
#198 = CARTESIAN_POINT ( 'NONE',  ( -8.099999999999999645, 0.0000000000000000000, 1.000000000000000000 ) ) ;
#199 =( NAMED_UNIT ( * ) PLANE_ANGLE_UNIT ( ) SI_UNIT ( $, .RADIAN. ) );
#200 = EDGE_CURVE ( 'NONE', #102, #31, #165, .T. ) ;
#201 = DIRECTION ( 'NONE',  ( 0.0000000000000000000, 0.0000000000000000000, 1.000000000000000000 ) ) ;
#202 = ADVANCED_BREP_SHAPE_REPRESENTATION ( '70E3D146-0397-4216-AC42-DCCCF6DFB2DB', ( #184, #112 ), #23 ) ;
#203 = PRODUCT_DEFINITION_FORMATION_WITH_SPECIFIED_SOURCE ( 'ANY', '', #127, .NOT_KNOWN. ) ;
#204 =( NAMED_UNIT ( * ) PLANE_ANGLE_UNIT ( ) SI_UNIT ( $, .RADIAN. ) );
#205 = SHAPE_DEFINITION_REPRESENTATION ( #12, #202 ) ;
#206 =( GEOMETRIC_REPRESENTATION_CONTEXT ( 3 ) GLOBAL_UNCERTAINTY_ASSIGNED_CONTEXT ( ( #95 ) ) GLOBAL_UNIT_ASSIGNED_CONTEXT ( ( #207, #204, #59 ) ) REPRESENTATION_CONTEXT ( 'NONE', 'WORKASPACE' ) );
#207 =( LENGTH_UNIT ( ) NAMED_UNIT ( * ) SI_UNIT ( .MILLI., .METRE. ) );
#208 = EDGE_LOOP ( 'NONE', ( #161, #30, #44, #114 ) ) ;
#209 = AXIS2_PLACEMENT_3D ( 'NONE', #123, #181, #35 ) ;
#210 = MECHANICAL_DESIGN_GEOMETRIC_PRESENTATION_REPRESENTATION (  '', ( #96 ), #86 ) ;
#211 = VERTEX_POINT ( 'NONE', #60 ) ;
#212 = ADVANCED_FACE ( 'NONE', ( #187 ), #171, .T. ) ;
#213 = ORIENTED_EDGE ( 'NONE', *, *, #41, .T. ) ;
#214 = DIRECTION ( 'NONE',  ( -1.000000000000000000, 0.0000000000000000000, 0.0000000000000000000 ) ) ;
ENDSEC;
END-ISO-10303-21;
